PrimaNota.ru - самый крупный в мире бесплатный архив песенных текстов, аккордов, табулатур и нот


Clutch - Big News II - текст песни, таба, видео

Регистрация Запомнить меня
Войти через:  Facebook Google Twitter Vk Yandex Mail.ru

Clutch - Big News II - текст песни, таба, видео

Печатать
Просмотров: 144
Авторы музыки: Clutch
Авторы текста: Clutch
Author/Artist: Clutch
Album: Clutch
Title: Big News II
Transcribed by: Mike Tysor
Email: miketysor@hotmail.com

I think they make their riffs incredibly simple
just so everyone else can play their stuff.


Intro 2x
----------------------------------------------------------------------
----------------------------------------------------------------------
----------------------------------------------------------------------
-----------8---5--5--------------------8---5--5-----------------------
-1-2-3-----6---3--3----------1-2-3-----6---3--3-----------------------
----------------------------------------------------------------------


----------------------------------------------------------------------
----------------------------------------------------------------------
----------------------------------------------------------------------
-----------8---5--5---------------------------------------------------
-1-2-3-----6---3--3----------1--3---------1--2--3---------------------
------------------------------------0--1------------------------------



Verse:


(4x)
----------------------------------------------------------------------
----------------------------------------------------------------------
----------------------------------------------------------------------
--------1-----3-3--------------1-----3-3------------------------------
-1-2-3-----3------------1-2-3-----3-----------------------------------
----------------------------------------------------------------------
Can't funk with the feel...


(2)
----------------------------------------------------------------------
---------2-----4-4-------------2-----4-4------------------------------
--1-2-3-----3-----------1-2-3-----3-----------------------------------
----------------------------------------------------------------------
----------------------------------------------------------------------
----------------------------------------------------------------------
And I believe there is gamblin'...


(2)
----------------------------------------------------------------------
---------4-----6-6-------------4-----6-6------------------------------
--3-4-5-----5-----------3-4-5-----5-----------------------------------
----------------------------------------------------------------------
----------------------------------------------------------------------
----------------------------------------------------------------------
We've got greedo.....


Chorus:
----------------------------------------------------------------------
----------------------------------------------------------------------
----------------------------------------------------------------------
-----------8---5--5--------------------8---5--5-----------------------
-1-2-3-----6---3--3----------1-2-3-----6---3--3-----------------------
----------------------------------------------------------------------
pieces of eight....

----------------------------------------------------------------------
----------------------------------------------------------------------
----------------------------------------------------------------------
-----------8---5--5---------------------------------------------------
-1-2-3-----6---3--3----------3-2-1-----3-2-1--------------------------
----------------------------------------------------------------------
electric order...         ...Never look a bounty hunter...



It continues incorporating the previous riffs throughout
the rest of the song.

     
Добавлено: 03.06.2013
Другие материалы по этой песне:
  • Аккорды и текст

Страница создана 22.06.2012
http://primanota.ru/clutch/big-news-ii-chords.htm
Привет, Гость.
Предлагаем пройти революционный курс по гитаре.
Подарок от PrimaNota.Ru, забирай!