PrimaNota.ru - самый крупный в мире бесплатный архив песенных текстов, аккордов, табулатур и нот


Chet Atkins - Jam Man - таба, видео

Регистрация Запомнить меня
Войти через:  Facebook Google Twitter Vk Yandex Mail.ru

Chet Atkins - Jam Man - таба, видео

Печатать
Просмотров: 1255
Авторы музыки: Chet Atkins

     Chet Atkins-Jam Man (tab)  OFFICIAL TAB

Intro Am      G         Am         G         C          G7
e|----------|---------|----------|---------|----------|----------|
B|---1---1--|1--------|---1---1--|1--------|--5----5--|5----3----|
G|---2---2--|2----0---|---2---2--|2----0---|--6----6--|6----4----|
D|---2-----2|---2-0--0|---2-----2|---2-0--0|--6------6|--6-----3-|
A|0---------|0--------|0---------|0--------|3---------|3-----3---|
E|-----0----|-----3---|-----0----|-----3---|-----3----|----------|

    C           G#dm7             Am
e|------------|---------------|---------------|
B|----5----5--|5-------3------|-----1-----1---|
G|----5----5--|5-------4------|-----2-----2---|
D|----5------5|----5---------3|-----2--------2|
A|3-----------|3--------------|--0------------|
E|------3-----|--------4------|---------------|

     F          E         Am
e|----------------------|-------|0---------|
B|----------------------|------1|----------|
G|----------------------|----2--|----------|
D|----------------------|--2----|----------|
A|--3-----3------2-----2|0------|----------|
E|1----1-----0-----0----|-------|-----0---4|


e|11-12-11-12|-------------|11-12-11-12|-------------|11-12-11-12|
B|-----------|3/5--3--3----|-----------|6/0--6--6-5-5|-----------|
G|----------------------5-5|-----------|-------------------------|
D|---------------------------------------------------------------|
A|---------------------------------------------------------------|
E|---------------------------------------------------------------|


e|-------------------------------------------------------------|
B|-------------------------------------------------------------|
G|-------------------------------------------------------------|
D|5---------------------10---------------9-------------------14|
A|5---------------------10---------------9-------------------14|
E|3---------------------8----------------7-------------------12|

email me at jondurrant101@gmail.com
Добавлено: 18.08.2013
Другие материалы по этой песне:
  • Аккорды и текст

Страница создана 13.07.2013
http://primanota.ru/chet-atkins/jam-man-chords.htm
Привет, Гость.
Предлагаем пройти революционный курс по гитаре.
Подарок от PrimaNota.Ru, забирай!