PrimaNota.ru - самый крупный в мире бесплатный архив песенных текстов, аккордов, табулатур и нот


Chet Atkins - Mister Sandman - таба, видео

Регистрация Запомнить меня
Войти через:  Facebook Google Twitter Vk Yandex Mail.ru

Chet Atkins - Mister Sandman - таба, видео

Печатать
Просмотров: 1347
This song is tuned in standard tuning and it is a pretty difficult song but once you
get down the rythm to it, it's easier. 


|------------||------0-4-2-0-----|-----2-5-4-----||-----2-5-4--0-2-|
|------------||o---2---------2---|---3-----3----o||---3-----3------|
|----------1-||--2-------------2-|-4-------4-----||-4-------4------|
|------2-4---||------------------|---------------||----------------|
|------------||o-----------------|--------------o||----------------|
|------------||------------------|---------------||----------------|



|-4---2---(2)-------|-4-4---4-(4)-------|---5-5-4-5-(5)-4-(4)-|
|-2---2---(2)-----2-|-----7-------------|---------------------|
|---2---2-----2---2-|-5-5-5-5-(5)-5-----|---4-4-4-4--4--4--4--|
|-------------------|---4---4-----4-----|---3---3----3-----3--|
|-0--------0--------|---------------1-3-|-4-------4-----------|
|-----0---------0---|-4---4----4--------|-----4---------4-----|


|-------------------|---4-4-2-4---2---|---0---0---------|
|-3-3-3-3-(3)-------|-----------------|-2---2---2-------|
|-3-3-3-3-(3)-------|---2-2-2-2---2---|-1-1-----1-1-----|
|---2---2-----2-----|---1---1---1---1-|---0---0---2-----|
|-----------------1-|-2-------2-------|-----2-----------|
|-2---2----2----4---|-----2-------2---|-0-------0---2-4-|


|---7-7-5-7---5---|-8---8---9-7-(7)---|-4---2---(2)-------|
|-----------------|-------------------|-2---2---(2)-----2-|
|---6-6-6-6---6---|-8-8-8-8-7-7-(7)-7-|---2---2-----2---2-|
|---7---7---7---7-|---7---7---6-----6-|-------------------|
|-----------------|-8---8---7----7----|-0--------0--------|
|-5---5---5---5---|-------------------|-----0---------0---|


|-4-4---4-(4)-------|---5-5-4-5-(5)-4-(4)-|-------------------------|
|-----7-------------|---------------------|-3-3-3-3-(3)---3-(3)-2---|
|-5-5-5-5-(5)-5-----|---4-4-4-4--4--4--4--|-3-3-3-3-(3)-3-----------|
|---4---4-----4-----|---3---3----3-----3--|---2---2-----2---------2-|
|---------------1-3-|-4-------4-----------|-------------------------|
|-4---4----4--------|-----4---------4-----|-2---2----2-------2------|


|-------------2---5-(5)---|-7-------7---7p5-7---|-9---9---9---5-7--|
|-----3-(3)---------------|---6---6---6-------6-|------------------|
|-4-4-------4---4-------4-|---7---7---7-------7-|-8-8-8-8-7-7-7-7--|
|---4-------4---4-------4-|---------------------|---7---7---6---6--|
|-2-----------2-----------|-5-------5-----------|---------7---7----|
|--------2-----------2----|-----5---------5-----|-7---7------------|


                          
                                                       ~
|-5-------------5-------||------5-9-7-5-----|-----7-10-9-----||
|-----------5-----------||o---7---------7---|---8------8----o||
|-----6-(6)---------4-6-||--7-------------7-|-9--------9-----||
|---7---------7---7-----||------------------|----------------||
|-----------------------||o-----------------|---------------o||
|-5------0------5-------||------------------|----------------||



                                        ~~~~~~
|-----7-10-^10------|-7--3------|-6-6---6-(6)----|
|---8------^13----5-|-7--5------|-7-7-7-7-(7)----|
|-9--------^11--7---|-7--4------|-9-9-9-9-(9)----|
|-------------------|-----------|-----8----------|
|-------------------|-----------|----------------|
|-------------------|-----------|----------------|


|--7-7-7-7--7--|-----------------------|
|--8-8-7-8--7--|-5-5-5-5------(5)--(5)-|
|--8-8-8-8--8--|-5-5-5-5------(5)--(5)-|
|--------------|-6-6-6-6------(6)--(6)-|
|--------------|-----------------------|
|--------------|-----------------------|


                           ~~~~~~
|--5-/5-/5-/5--3\--|---2---2-(2)----|
|--7-/7-/7-/7--5\--|-3---3-3-(3)----|
|--6-/6-/6-/6--4\--|-4---4-5-(5)----|
|------------------|-4---4-4-(4)----|
|------------------|----------------|
|------------------|----------------|



|--/10-/10----10------|-/11-(11)\-/11-(11)\-/10--8---|
|--/12-/12-12-12--12--|-/11-(11)\-/11-(11)\-/12-10---|
|--/11-/11-11-11--12--|-/12-(12)\-/12-(12)--/11--9---|
|----------12-----12--|------------------------------|
|---------------------|------------------------------|
|---------------------|------------------------------|



|-------7-------7-----------------|-------6-------6-----------------|
|-7---7---7---7---------8-------8-|-7---7---7---7---------7-------7-|
|---7-------7-----9---9---9---9---|---9-------9-----9---9---9---9---|
|-------------------9-------9-----|-------------------8-------8-----|
|---------------------------------|---------------------------------|
|---------------------------------|---------------------------------|



|-------7-------7-------7-------7-|-----------------------------|
|-8---8---7---7---8---8---7---7---|-------5-------5-------------|
|---8-------8-------8-------8-----|-5---5---7---7---5---5-7-5-4-|
|---------------------------------|---6-------6-------6---------|
|---------------------------------|-----------------------------|
|---------------------------------|-----------------------------|


                                ~~~~~
|----------------------------|-----------------|-7--7--7-7-7--|
|--------------5----5-8--5-8-|-10---------8-10-|-8--8--7---7--|
|-------5----5----5----------|-12b14-----------|-6--6--5---5--|
|-7---7----7-----------------|-----------------|--------------|
|---7------------------------|-----------------|--------------|
|----------------------------|-----------------|--------------|


                   
                                             ~
|-5S3----------||------3-7-5-3-----|-----5-8-7-----||-----5-8-7--------|
|-5S3----------||o---5---------5---|---6-----6----o||---6--------------|
|-4S2----0-2-4-||--5-------------5-|-7-------7-----||-7----------------|
|--------------||------------------|---------------||------------------|
|--------------||o-----------------|--------------o||-------------0-2--|
|--------------||------------------|---------------||-----------3------|


 
|------------------------|-7-7----7-(7)-------|---8-8-7-8---7---|
|-12-10-------------(10)-|-----10-------------|-----------------|
|--9--9----9----9-----9--|-8-8--8-8-(8)-------|---7---7---7---7-|
|----10---10---10----10--|---7----7-----9-8-7-|-6-6---6---6---6-|
|------------------------|--------------------|-7---7---7---7---|
|--8----8----8----8------|-7----7----7--------|-----------------|


|-------------------|---7-7-5-7---5-(5)---|---3---3-(3)-------|
|-6-6-6-6-(6)-------|---------------------|-5---5-------------|
|-6-6-6-6-(6)-------|---5---5---5-------5-|-4-4-4-4-----4-----|
|---5---5-----7-6-5-|-4-4---4---4-------4-|---3---3-----3-----|
|-------------------|-5---5---5------5----|-----5---------0-2-|
|-5---5----5--------|---------------------|-3--------3--------|


|---10-10--8-10----8----|-11----11----12-10-------|-----------------------|
|-----------------------|-------------------------|-12----10--------------|
|----9--9--9--9--9-9--9-|-11-11-11-11-10-10----10-|--9--9--9--9----9----9-|
|---10----10----10---10-|----10----10-----9-----9-|----10----10---10---10-|
|-----------------------|-11----------10----------|-----------------------|
|-8-----8-----8----8----|-------11----------10----|--8-----8----8----8----|


|-7-7----7-(7)-------|---8-8-7-8---7---|-----5-----------------------|
|-----10-------------|-----------------|-6-----6-(6)---6---6-(6)-5---|
|-8-8--8-8-(8)-------|---7---7---7---7-|---6-6-------6---6---------6-|
|---7----7-----9-8-7-|-6-6---6---6---6-|-----5-------5---5---------5-|
|--------------------|-7---7---7---7---|-----------------------------|
|-7----7----7--------|-----------------|-5--------5----5------5------|


|-------------5---8-(8)---|-10------10-(10)----(10)----8-(8)-10----|
|-----6-(6)-----6-------6-|----9-----------------------------------|
|-7-7-------7---5-------5-|------10---------10------10----------10-|
|---7-------7---7-------7-|------10---------10------10----------10-|
|-5-----------5-----------|--8-----------8-------8--------8--------|
|--------5-----------5----|----------------------------------------|


                                  
|-12----12----------12----8-10-8-|-----7------6------5------4-|
|-------------------12-----------|-----8------7------6------5-|
|-11-11-11-11----10-10-----------|-----8------7------6------5-|
|----10----10-----9--------------|---7------6------5------4---|
|-------------10-------10--------|-8------7------6------5-----|
|-10----10-----------------------|----------------------------|


              
              ~~~~~
|------3------5-----(5)----*|
|------4------5-----(5)----*|
|------4------5-----(5)----*|
|----3------5--------------*|
|--4------3----------------*|
|--------------------------*|

That's it hope you enjoy.

tkf.
Добавлено: 04.05.2012
Другие материалы по этой песне:

Страница создана 02.04.2012
http://primanota.ru/chet-atkins/mister-sandman-chords.htm
Привет, Гость.
Предлагаем пройти революционный курс по гитаре.
Подарок от PrimaNota.Ru, забирай!