PrimaNota.ru - самый крупный в мире бесплатный архив песенных текстов, аккордов, табулатур и нот


Chet Atkins - Im Forever Blowing Bubbles - таба, видео

Регистрация Запомнить меня
Войти через:  Facebook Google Twitter Vk Yandex Mail.ru

Chet Atkins - Im Forever Blowing Bubbles - таба, видео

Печатать
Просмотров: 175
 Q=160
 4/4
  Gtr I
  Q  E. S E. S E. S     Q  Q  E Q   E   Q  E H      E   Q  E H      E
|-------------------||--0-----0-------|------2--------|------5---------|
|-------------------||o----7----4-----|-3-------------|-5--------------|
|-------------------||----------------|---------------|----------------|
|-------------------||-----7------7---|----0------0---|----7------7----|
|-------------------||o-0-------------|--------2------|-0--------------|
|----0----2----4----||--------0-------|-0-------------|--------0-------|
                        Q  Q  Q   Q     Q  Q   Q  Q     Q  Q   Q  Q


  Q  E H      E    Q   Q   E Q     E    H       E  Q    E   E Q   H      E
|------7--------|--------------------|--------------------|----------------|
|-6-------------|-10---9--10-9----10-|--------------------|-5-----5--------|
|---------------|--------------------|------------11------|---6------------|
|----5------5---|-----12-------12----|-----12--------12---|-----7------7---|
|---------------|----------0---------|--------------------|-0--------------|
|-5------5------|-10-----------------|-10------10---------|---------0------|
  Q  Q   Q  Q      Q   Q   Q    Q       Q   Q   Q     Q     Q   Q   Q  Q


  E  Q    E H         Q   E  H         E   H     E Q.       Q   Q   H
|------------------|-------------------0-|---------0-----|------------------0-|
|---10------9------|--------10-----------|---------------|------9--10---------|
|--------------12--|-11----------11------|---------------|-11---------11------|
|------11------11--|-----12---------12---|----7-------7--|-----12--------12---|
|-0----------------|-----------0---------|-0-------------|----------0---------|
|-----------0------|-10------------------|-------0-------|-10-----------------|
  Q     Q   Q   Q     Q   Q    E  E  Q     Q  Q  Q    Q     Q   Q   E  E  E E


  E Q   Q   E Q    Q  E Q   Q   E    Q  E Q   E Q    E Q   Q   E E E
|---4-------4p0--|----------------|----------------|-4-----5-------7-|
|-------7--------|------7---9-----|-10----7--------|---------------7-|
|----------------|-8--------------|----------------|---7-------0-----|
|-----7-------7--|----7-------7---|-----7-------7--|-----6-------6---|
|-0--------------|--------9-------|---------9------|-----------------|
|---------0------|-7--------------|--7-------------|-0-------7-------|
  Q   Q   Q   Q    Q  Q   Q   Q      Q  Q   Q   Q    Q   Q   Q   E E


  E Q   H      E   H     E Q   E   H      H        E H       E Q
|-------8--------|-9-------8---9-|--------------|----9------------|
|-------7--------|-7-----------7-|-------10-----|-12-----9--------|
|---7------------|---------------|--------------|-----------------|
|-----6------6---|----7------7---|----7------7--|------9-------9--|
|----------------|-0-------------|-0------9-----|-----------------|
|-0-------0------|-------0-------|--------------|--9-------9------|
  Q   E E Q  Q     Q  Q  Q   E E   Q  Q   Q  Q     Q   E E Q   Q


  Q  Q  Q  Q     Q   Q  E  Q    E    H     Q  Q    E Q   H      E
|-------------|-------------------|--------------|-4-----4--------|
|-------------|-10--------12------|-10-----7-----|---0------------|
|-------------|-------------------|--------------|----------------|
|----9-----9--|-----11-------11---|-----7-----7--|-----6------6---|
|-------------|--9----------------|--------------|----------------|
|-9-----9-----|---------9---------|--7-----7-----|-0-------7------|
                 H      Q     Q      Q  Q  Q  Q    Q   Q   Q  Q


  E    Q      Q     E   Q    E Q   Q   Q   E   E Q   H      E   Q  E H      E
|--------------------------|---0-----0-------|-------2--------|------5--------|
|------9------7-----5---3--|-------7---4-----|-3--------------|-5-------------|
|---9------7------6-----4--|-----------------|---1------------|---------------|
|--------------------------|-----7-------7---|-----0------0---|----7------7---|
|-7------5------4-------2--|-0---------------|---------2------|-0-------------|
|--------------------------|---------0-------|-0--------------|--------0------|
  S E.   S E.   S E   S Q    Q   Q   Q   Q     Q   Q   Q  Q     Q  Q   Q  Q


                                                 1.
  Q  Q  E  Q   E   Q  H.          E H      E Q    H.           Q
|----------------|-9p=7---------|---4-----------|-5----------------|
|----9----10-----|--------------|-7-0-----------|-5----------------|
|----9-----------|-8------------|---------------|-6----------------|
|----8-------8---|----7------7--|-----6------6--|-7----------------|
|-9-----9--------|--------------|---------------|-0--4-5-2-4---2---|
|----------------|-7------7-----|-0------0------|------------5---4-|
  Q  H       Q     Q  Q   Q  Q    Q   Q  H        E  E E E E Q   E


                   2.
  E Q  Q.   Q      H.      Q
|------0--------||-5----------*|
|------3-------o||-5----------*|
|------5--------||-6----------*|
|------6--------||-7----------*|
|--------------o||-0----------*|
|-5-0-----------||------------*|




--------------------------------------------------------------------------------


Duration Legend
---------------
W - whole; H - half; Q - quarter; E - 8th; S - 16th; T - 32nd; X - 64th; a - acciaccatura
+ - note tied to previous; . - note dotted; .. - note double dotted
Uncapitalized letters represent notes that are staccato (1/2 duration)
Irregular groupings are notated above the duration line
Duration letters will always appear directly above the note/fret number it represents the
duration for.  Duration letters with no fret number below them represent rests.  Multi-
bar rests are notated in the form Wxn, where n is the number of bars to rest for.  Low
melody durations appear below the staff

Tablature Legend
----------------
 h   - hammer-on
 p   - pull-off
 b   - bend
 pb  - pre-bend
 r   - bend release (if no number after the r, then release immediately)
 /\  - slide into or out of (from/to "nowhere")
 s   - legato slide
 S   - shift slide
 - natural harmonic
[n]  - artificial harmonic
n(n) - tapped harmonic
 ~   - vibrato
 tr  - trill
 T   - tap
 TP  - trem. picking
 PM  - palm muting
\n/  - tremolo bar dip; n = amount to dip
 \n  - tremolo bar down
 n/  - tremolo bar up
/n\  - tremolo bar inverted dip
 =   - hold bend; also acts as connecting device for hammers/pulls
 <> - volume swell (louder/softer)
 x   - on rhythm slash represents muted slash
 o   - on rhythm slash represents single note slash

Misc Legend
-----------
 |  - bar
||  - double bar
||o - repeat start
o|| - repeat end
*|  - double bar (ending)
 :  - bar (freetime)
 $  - Segno
 &  - Coda
Tempo markers -  = BPM(8/16=s8/s16), where s8 = swing 8ths, s16 = swing 16ths
Добавлено: 04.10.2013
Другие материалы по этой песне:
  • Аккорды и текст

Страница создана 04.10.2013
http://primanota.ru/chet-atkins/im-forever-blowing-bubbles-chords.htm
Привет, Гость.
Предлагаем пройти революционный курс по гитаре.
Подарок от PrimaNota.Ru, забирай!