PrimaNota.ru - самый крупный в мире бесплатный архив песенных текстов, аккордов, табулатур и нот


Chet Atkins - Three Little Words - таба, видео

Регистрация Запомнить меня
Войти через:  Facebook Google Twitter Vk Yandex Mail.ru

Chet Atkins - Three Little Words - таба, видео

Печатать
Просмотров: 166
Авторы музыки: Harry Ruby
Авторы текста: Bert Kalmar
Title: 3 little words
Tempo = 180
Electric Guitar

Legend
L - tied note
x - dead note
h - hammer on/pull off
b - bend
s - slide
~ - vibrato
g - ghost note
> - accentuated note
t - trill
M - palm mute
. - staccato
P - popping (bass)
S - slapping (bass)
+ - tapping
W - wide vibrato
< - fade in
w - whammy bar
= - tremolo picking
v - brush up
^ - brush down
V - pick stroke up
n - pick stroke down


E |---------------|||-5-----------------0L-0----------------|----------------|
B |-----2-----2---|||-------------------------7-------------|----------------|
G |-----2-----2--o|||o---------2-----------------------6----|----------------|
D |-----2-----2--o|||o---------------------------7L-7-------|-----7-----7----|
A |--0-----0------|||-0-------------------------------------|--0-------------|
E |---------------|||-------------------0L-0----------------|--------0-------|


--------0-----------------0-------------|
-----------------7----------------------|
----------------------------------------|
-----------7L-7--------------7----------|
--0L-0----------------------------------|
--------------------0L-0----------------|


----------------------------------------|
--8--------8--------------7-------------|
----------------------------------------|
-----------7----------------------------|
-----------------------------7----------|
--7-----------------7L-7----------------|


--0-------------------------------------|----------------|--------0-------|
--------------------2L-2--3--------0----|----------------|----------------|
----------------------------------------|----------------|----------------|
-----------0-----------------0L-0-------|-----0-----0----|-----0-----0----|
----------------------------------------|--------2-------|----------------|
--0-----------------0L-0----------------|--0-------------|--0-----0-------|


---------------||--5--------------------------------0----|
--7-----9------||--------------------7L-7--8-------------|
--8-----7-----o||----------------------------------------|
--------------o||----------------------------------------|
-----7-----9---||-----------7-----------------7L-7-------|
--7-----0------||--0-----------------0L-0----------------|


--------------------------5-------------|--7-------------|----------------|
-----------7--------8L-8----------------|----------------|--6-------------|
----------------------------------------|----------------|----------------|
-----------7-----------------7----------|-----5-----5----|-----5-----5----|
--0-------------------------------------|--0-------------|--0-------------|
--------------------0L-0----------------|--------0-------|--------0-------|


--2-----------------2L-2--3-------------|
----------------------------------------|
-----------------------------------4----|
-----------4-----------------4L-4-------|
--5-------------------------------------|
--------------------5L-5----------------|


----------------------------------------|----------------|----------------|
-----------2--------3L-3--5-------------|--6-----7-------|--10----9-------|
----------------------------------------|--7-----9-------|--8-----7-------|
-----------4-----------------4----------|-----6-----8----|----------------|
----------------------------------------|----------------|-----7-----9----|
--2-----------------2L-2----------------|--2-----9-------|--7-----0-------|


--5-----------------0L-0----------------|----------------|
--------------------------7-------------|----------------|
-----------------------------------6----|----------------|
-----------2----------------------------|-----7-----7----|
--0-----------------0L-0-----7L-7-------|--0-------------|
----------------------------------------|--------0-------|


--------0-----------------0-------------|
-----------------7----------------------|
----------------------------------------|
-----------7L-7--------------7----------|
--0L-0----------------------------------|
--------------------0L-0----------------|


----------------------------------------|
--8--------8--------------7-------------|
----------------------------------------|
-----------7----------------------------|
-----------------------------7----------|
--7-----------------7L-7----------------|


--0-------------------------------------|--7-----9-------|--5-------------|
--------------------2L-2--3--------0----|----------------|----------------|
----------------------------------------|--7-----9-------|--6-------------|
-----------0-----------------0L-0-------|-----6-----12---|-----7-----7----|
----------------------------------------|----------------|--0-------------|
--0-----------------0L-0----------------|--7-----9-------|--------0-------|


--0----||
--5----||
--6----||
--7----||
--0----||
-------||

Добавлено: 04.12.2013
Другие материалы по этой песне:

Страница создана 02.10.2013
http://primanota.ru/chet-atkins/three-little-words-chords.htm
Привет, Гость.
Предлагаем пройти революционный курс по гитаре.
Подарок от PrimaNota.Ru, забирай!