PrimaNota.ru - самый крупный в мире бесплатный архив песенных текстов, аккордов, табулатур и нот


Chet Atkins - Nobodys Sweetheart - таба, видео

Регистрация Запомнить меня
Войти через:  Facebook Google Twitter Vk Yandex Mail.ru

Chet Atkins - Nobodys Sweetheart - таба, видео

Печатать
Просмотров: 105
Nobody¹s Sweetheart
by Schoebel, Erdman, Kahn, Meyers

This transcription is based on Chet Atkins¹ arrangement as heard on: Chet
Atkins- Guitar Legend- The RCA Years.  Play along with the recording to get
Chet¹s timing.  It¹s a sweet tune and pretty easy to play (at least this
part).

Peter Bergenske
berg1101@pacificu.edu

               C                         A7

E--------------0------1---3------0---3---0-------------0---------
B--------------1-----------------1-------2-------2-----2---------
G----------------------------------------------------------------
D-----------------2----------2-----2--------2-------0--2--2--1--0
A------0--2----3------3----------3-------0-----0-----------------
E---3------------------------------------------------------------

    Am                                                  G 
 
E------------0-------------0---------------------------------------
B---1-----3-------1-----3-------1------1----1-----------0---------0
G---2-------------------2-------2-----------2--2--1--0--------2----
D------2-------2-----2-------2-----2-----2----------------0-----0--
A---0-----0-------0-----0-------0----0------0----------------------
E-------------------------------------------------------3---3-----3

    G  F# F   C                     D/F#

E---3--2--1----------------------------------------0-------------
B---3--2--1---1--------0------0^1----3-----2--3----3-----2--3----
G---4--3--2---0----------------------2--------2----------2--2----
D---5--4--3------2--------2-------------0--------0----0---------0
A-------------3-----------------3--------------------------------
E-------------------3----------------2-----2-------2-----2-------

   G                       C                     A7

E--0-----------------------0-----1--3----0----3--0-------------0-
B--0-------4--3------------1-------------1-------2-------2-----2-
G----------5--4--------------------------------------------------
D-----0----4--3---------------2-------2-----2-------2-------2----
A--------------------0--2--3-----3-------3-------0-----0-------0-
E--3--------------3----------------------------------------------

    Am

E------------0-------------0------------------------------------
B---1-----3-------1-----3-------1------1----1-------------------
G---2-------------------2-------2-----------2-------------------
D------2-------2-----2-------2-----2-----2----------------------
A---0-----0-------0-----0-------0----0------0-------------------
E---------------------------------------------------------------

    F                  Db9            C

E-----5--5--------5------4--4-----4---0-----1--3----0----1--3----
B-----6-----6------------4-----4--4---1-------------1------------
G--------5--------5----------------------------------------------
D--3-----------3------------3------------2-------2-----2------2--
A---------------------------------4---3-----3-------3----3-------
E----------------------4-----------------------------------------

                          C                       A7

E--0----------------------0-----1--3----0-----3---0-------------0-
B--1----4---3-------------1-------------1-----1---2-------2-----2-
G-------5---4-----------------------------------------------------
D----2--4---3----------------2-------2-----2---------2-------2----
A--3---------------0--2---3-----3-------3---------0-----0-------0-
E---------------3-------------------------------------------------

               Dm7           G              C

E----------0---1-----5---1---0--------0------------------------
B--2--2^3------3-------------0-----3--------1------------------
G-----------------2-------------------------0------------------
D--2-----------0-----0----------0-------0----------------------
A-----0-------------------------------------3------------------
E----------------------------3-----3---------------------------

     
Добавлено: 21.09.2013
Другие материалы по этой песне:
  • Аккорды и текст

Страница создана 21.09.2013
http://primanota.ru/chet-atkins/nobodys-sweetheart-chords.htm
Привет, Гость.
Предлагаем пройти революционный курс по гитаре.
Подарок от PrimaNota.Ru, забирай!