PrimaNota.ru - самый крупный в мире бесплатный архив песенных текстов, аккордов, табулатур и нот


Bury Tomorrow - Garden Of Thorns - таба, видео

Регистрация Запомнить меня
Войти через:  Facebook Google Twitter Vk Yandex Mail.ru

Bury Tomorrow - Garden Of Thorns - таба, видео

Печатать
Просмотров: 219
-------------------------------------------------------------------------------
                             GARDEN OF THORNS - Bury Tomorrow
-------------------------------------------------------------------------------
Tabbed by: Michael Vansingel
Last edit: 25th November 2014
Tuning: Drop A#

Notes:
Rhythm guitar only, still trying the lead part. Enjoy!

e|---------------------------------------------------------------------------|
B|---------------------------------------------------------------------------|
G|---------------------------------------------------------------------------|
D|------------------------------3-----------3333-----------------------------|
A|------------------------3-----------------5555-----------------------------|
E|-0-00-13p0--12--0---1p0---1-0---1---0--------------------------------------|
pm   **                       *

e|---------------------------------------------------------------------------|
B|---------------------------------------------------------------------------|
G|---------------------------------------------------------------------------|
D|------------------------------5-----------3333-----------------------------|
A|------------------------5-----------------5555-----------------------------|
E|-0-00-13p0--12--0---3p0---3-0---3---0--------------------------------------|
pm   **                       *

e|---------------------------------------------------------------------------|
B|---------------------------------------------------------------------------|
G|---------------------------------------------------------------------------|
D|------------------------------3-----------3333-----------------------------|
A|------------------------3-----------------5555-----------------------------|
E|-0-00-13p0--12--0---1p0---1-0---1---0--------------------------------------|
pm   **                       *


e|---------------------------------------------------------------------------|
B|---------------------------------------------------------------------------|
G|---------------------------------------------------------------------------|
D|---------------------------12----------------------------------------------|
A|----------------------12--------12-8---------------------------------------|
E|-0-00-13p0--12--0-88-----8----8------8--7777-------------------------------|
pm   **             **     *    *

e|---------------------------------------------------------------------------| x3
B|---------------------------------------------------------------------------|
G|---------------------------------------------------------------------------|
D|-------------------------------555-----------------------------------------|
A|-00-0000-0--0000-0--0000--0000-333-----------------------------------------|
E|-00-0000-0--0000-0--0000--0000---------------------------------------------|
pm ** **** *  **** *  ****  ****

e|---------------------------------------------------------------------------|
B|---------------------------------------------------------------------------|
G|---------------------------------------------------------------------------|
D|--------------------------12-----------------------------------------------|
A|-00-0000-0--0000-----12--------12-8----------------------------------------|
E|-00-0000-0--0000-8-8-----8----8------7777----------------------------------|
pm ** **** *  ****   *     *    *

e|---------------------------------------------------------------------------|
B|---------------------------------------------------------------------------|
G|---------------------------------------------------------------------------|
D|---------------------------------------------------------------------------|
A|---------------------------------------------------------------------------|
E|-0-00-13p0--12--0--13p12-0-13p12-0-0-0000----------------------------------|
pm   **                    *       *   ****

e|---------------------------------------------------------------------------|
B|---------------------------------------------------------------------------|
G|---------------------------------------------------------------------------|
D|------------------------------3----------------5---------------------------|
A|------------------------3----------------5---------------------------------|
E|-0-00-13p0--12--0---1p0---1-0---1-0--3p0---3-0---3-------------------------|
pm   **                       *     *          *

e|---------------------------------------------------------------------------|
B|---------------------------------------------------------------------------|
G|---------------------------------------------------------------------------|
D|---------------------------------------------------------------------------|
A|---------------------------------------------------------------------------|
E|-0-00-13p0--12--0--13p12-0-13p12-0-0-0000----------------------------------|
pm   **                    *       *   ****

e|---------------------------------------------------------------------------|
B|---------------------------------------------------------------------------|
G|---------------------------------------------------------------------------|
D|----------------------------12-----------------10--------------------------|
A|-----------------------12--------12-8-----10--------10---------------------|
E|-0-00-13p0--12--0--88-----8----8-------88----8----8----8-------------------|
pm   **              **     *    *       **    *    *

e|---------------------------------------------------------------------------|
B|---------------------------------------------------------------------------|
G|---------------------------------------------------------------------------|
D|-8~--7~--3~--0~--8~--7~--3~--5~--------------------------------------------|
A|-8~--7~--3~--0~--8~--7~--3~--5~--------------------------------------------|
E|-8~--7~--3~--0~--8~--7~--3~--5~--------------------------------------------|

e|---------------------------------------------------------------------------|
B|---------------------------------------------------------------------------| x2
G|---------------------------------------------------------------------------|
D|-8~--5~--0~--3~------------------------------------------------------------|
A|-8~--5~--0~--3~------------------------------------------------------------|
E|-8~--5~--0~--3~------------------------------------------------------------|

e|---------------------------------------------------------------------------|
B|---------------------------------------------------------------------------|
G|---------------------------------------------------------------------------|
D|-------------------------------555-----------------------------------------|
A|-00-0000-0--0000-0--0000--0000-333-----------------------------------------|
E|-00-0000-0--0000-0--0000--0000---------------------------------------------|
pm ** **** *  **** *  ****  ****

e|---------------------------------------------------------------------------|
B|---------------------------------------------------------------------------|
G|---------------------------------------------------------------------------|
D|---------------------------------------------------------------------------|
A|-00-0000-0--0000-0--0000---------------------------------------------------|
E|-00-0000-0--0000-0--0000--8~-----------------------------------------------|
pm ** **** *  **** *  ****

e|---------------------------------------------------------------------------|
B|---------------------------------------------------------------------------|
G|---------------------------------------------------------------------------|
D|---------------------------------------------------------------------------|
A|-00-000000-000000-000000000000---------------------------------------------|
E|-00-000000-000000-000000000000--00-000000--0000----------------------------|
pm ** ****** ****** ************

e|---------------------------------------------------------------------------|
B|---------------------------------------------------------------------------|
G|---------------------------------------------------------------------------|
D|---------------------------------------------------------------------------|
A|---------------------------------------------------------------------------|
E|-0-00-13p0--12--0--13p12-0-13p12-0-0-0000----------------------------------|
pm   **                    *       *   ****

e|---------------------------------------------------------------------------|
B|---------------------------------------------------------------------------|
G|---------------------------------------------------------------------------|
D|------------------------------3----------------5---------------------------|
A|------------------------3----------------5---------------------------------|
E|-0-00-13p0--12--0---1p0---1-0---1-0--3p0---3-0---3-------------------------|
pm   **                       *     *          *

e|---------------------------------------------------------------------------|
B|---------------------------------------------------------------------------|
G|---------------------------------------------------------------------------|
D|---------------------------------------------------------------------------|
A|---------------------------------------------------------------------------|
E|-0-00-13p0--12--0--13p12-0-13p12-0-0-0000----------------------------------|
pm   **                    *       *   ****

e|---------------------------------------------------------------------------|
B|---------------------------------------------------------------------------|
G|---------------------------------------------------------------------------|
D|----------------------------12-----------------10--------------------------|
A|-----------------------12--------12-8-----10--------10---------------------|
E|-0-00-13p0--12--0--88-----8----8-------88----8----8----8-------------------|
pm   **              **     *    *       **    *    *

e|---------------------------------------------------------------------------|
B|---------------------------------------------------------------------------|
G|---------------------------------------------------------------------------|
D|-8~--7~--3~--0~--8~--7~--3~--5~--------------------------------------------|
A|-8~--7~--3~--0~--8~--7~--3~--5~--------------------------------------------|
E|-8~--7~--3~--0~--8~--7~--3~--5~--------------------------------------------|

e|---------------------------------------------------------------------------|
B|---------------------------------------------------------------------------| x4
G|---------------------------------------------------------------------------|
D|-8~--5~--0~--3~------------------------------------------------------------|
A|-8~--5~--0~--3~------------------------------------------------------------|
E|-8~--5~--0~--3~------------------------------------------------------------|

e|---------------------------------------------------------------------------|
B|---------------------------------------------------------------------------|
G|---------------------------------------------------------------------------|
D|-0~----------3~----5~------------------------------------------------------|
A|-0~----------3~----5~------------------------------------------------------|
E|-0~----------3~----5~------------------------------------------------------|

e|---------------------------------------------------------------------------|
B|---------------------------------------------------------------------------|
G|---------------------------------------------------------------------------|
D|-0~----------3~----10~----5------------------------------------------------|
A|-0~----------3~----10~----5------------------------------------------------|
E|-0~----------3~----10~----5------------------------------------------------|


e|---------------------------------------------------------------------------|------|
B|---------------------------------------------------------------------------|      | x2
G|---------------------------------------------------------------------------|      |
D|---------------------------------------------------------------------------|      |
A|-0-0000-00000000~-0000-0000~-00--------------------------------------------|      |
E|-0-0000-00000000~-0000-0000~-00--------------------------------------------|      |
pm   * *  * * ***   * *  * *   **                                                   |
                                                                                    |
                                                                                    |
e|---------------------------------------------------------------------------|      |
B|---------------------------------------------------------------------------|      |
G|---------------------------------------------------------------------------|      |
D|---------------------------------------------------------------------------|      |
A|-3-3333-3333333--10--10-10-10-10--5-5~--5-55-5-5---------------------------|      |
E|-3-3333-3333333--10--10-10-10-10--5-5~--5-55-5-5---------------------------|      |
pm   * *  * * ***       *     *     *     * ** * *                                  |
                                                                                    |
e|---------------------------------------------------------------------------|      |
B|---------------------------------------------------------------------------|      |
G|---------------------------------------------------------------------------|      |
D|---------------------------------------------------------------------------|      |
A|-0-0000-00000000~-0000-0000~-00--------------------------------------------|      |
E|-0-0000-00000000~-0000-0000~-00--------------------------------------------|      |
pm   * *  * * ***   * *  * *   **                                                   |
                                                                                    |
                                                                                    |
e|---------------------------------------------------------------------------|      |
B|---------------------------------------------------------------------------|      |
G|---------------------------------------------------------------------------|      |
D|---------------------------------------------------------------------------|      |
A|-3-3333-3333333--10--10-10-10-10--5-5~-------------------------------------|      |
E|-3-3333-3333333--10--10-10-10-10--5-5~-------------------------------------|------|
pm   * *  * * ***       *     *     *

************************************

| /   slide up
| \   slide down
| h   hammer-on
| p   pull-off
| ~   vibrato
| +   harmonic
| x   Mute note
| pm  Palm mite
| b   Bend
| pb  Pre-bend
| br  Bend release
| pbr Pre-bend release
| brb Bend release bend

************************************
Добавлено: 21.06.2015
Другие материалы по этой песне:
  • Аккорды и текст

Страница создана 21.06.2015
http://primanota.ru/bury-tomorrow/garden-of-thorns-chords.htm
Привет, Гость.
Предлагаем пройти революционный курс по гитаре.
Подарок от PrimaNota.Ru, забирай!