PrimaNota.ru - самый крупный в мире бесплатный архив песенных текстов, аккордов, табулатур и нот


Bury Tomorrow - Sceptres - таба, видео

Регистрация Запомнить меня
Войти через:  Facebook Google Twitter Vk Yandex Mail.ru

Bury Tomorrow - Sceptres - таба, видео

Печатать
Просмотров: 204
BURY TOMORROW 

SCEPTRES

A#-F-A#-D#-G-C

TABBED BY andherembrace



-----------------------------------------------------------------|
-----------------------------------------------------------------|
-----------------------------------------------------------------|
----------------)---------------------------------------------5--|
-5-------------4----------------5-------------4-----5-4-----4----|
---3-0-0-0-2-0-----0-0---0-0------3-0-0-0-2-0---0-3-----0-3------|
     *   *   *     *     *          *   *   *   *       *


-----------------------------------------------------------------|
-----------------------------------------------------------------|
-----------------------------------------------------------------|
----------------)------------------------------------------------|
-5-------------4----------------5-------------4-----4-----4-4-4--|
---3-0-0-0-2-0-----0-0---0-0------3-0-0-0-2-0---0-0-2-0-0-2-2-2--|
     *   *   *     *     *          *   *   *   * *   * * 



0:12


B
------------------------------------------------------------------|
------------------------------------------------------------------|
------------------------------------------------------------------|
---------------------------------------------------------------5--|
-5-------------4-----------------5-------------4-----5-4-----4----|
---3-0-0-0-2-0---0-0-000-0-0-0-0---3-0-0-0-2-0---0-3-----0-3------|
     *   *   *   * * *** *   *       *   *   *   *       *

-----------------------------------------------------------------|
-----------------------------------------------------------------|
-----------------------------------------------------------------|
-----------------------------------------------------------------|
-5-------------4-----------------5-------------4------)-----)----|
---3-0-0-0-2-0---0-0-0-0-0-0-0-0---3-0-0-0-2-0---0-0-3---0-2-----|
     *   *   *   * *   * *   *       *   *   *   * *     *




0:24

------------------------------------------------------------------|
------------------------------------------------------------------|
------------------------------------------------------------------|
------------------------------------------------------------------|
-00000000-0-00-00----0-00-00----00000000-0-00-00--0000-00--0-0-0--|
-00000000-0-00-00----0-00-00----00000000-0-00-00--0000-00--0-0-0--|
 ******** * ** **    * ** **    ******** * ** **  **** **  * * *

------------------------------------------------------------------|
------------------------------------------------------------------|
------------------------------------------------------------------|
------------------------------------------------------------------|
-00000000-0-00-00----0-00-00----00000000-0-00-00--0000-00--0-0-0--|
-00000000-0-00-00----0-00-00----00000000-0-00-00--0000-00--0-0-0--|
 ******** * ** **    * ** **    ******** * ** **  **** **  * * *




0:36


----------------------------------------------------------------------------|
----------------------------------------------------------------------------|
----------------------------------------------------------------------------|
-----------------10-------------------------------------10------------------|
---------12-10--------12---10---7-8-10----------12-10--------12---10---7~~--|
88888888-------8----8----8----8--------00000000-------0----0----0----0------|
********       *    *    *    *        ********       *    *    *    *

----------------------------------------------------------------------------|
----------------------------------------------------------------------------|
-----------------------------------------------------------------_----------|
-----------------10-------------------------------------10-7----/ \---------|
---------12-10--------12---10---7-8-10----------12-10----------7-8-7--------|
88888888-------8----8----8----8--------00000000-------0------0-------10~~---|
********       *    *    *    *        ********       *      *   



0:47

L
----------------------------------------------------------------------------|
----------------------------------------------------------------------------|
----------------------------------------------------------------------------|
-----------------10-------------------------------------10------------------|
---------12-10--------12---10---7-8-10----------12-10--------12---10---7~~--|
88888888-------8----8----8----8--------00000000-------0----0----0----0------|
********       *    *    *    *        ********       *    *    *    *
R
------------------------------------------------------------------|
------------------------------------------------------------------|
------------------------------------------------------------------|
----------------7---------------------------------7---------------|
---------8-7--------8---7---3-5-7----------8-7--------8---7---3~~-|
88888888-----8----8---8---8-------00000000-----0----0---0---0-----|
********     *    *   *   *       ********     *    *   *   *


L
-------------------------------------------------------------------------|
-------------------------------------------------------------------------|
-----------------------------------------------------------------_-------|
-----------------10-------------------------------------10-7----/ \------|
---------12-10--------12---10---7-8-10----------12-10----------7-8-7-----|
88888888-------8----8----8----8--------00000000-------0------0-------10~~|
********       *    *    *    *        ********       *      *   
R
------------------------------------------------------------------|
------------------------------------------------------------------|
----------------------------------------------------------_-------|
----------------7---------------------------------7------/ \------|
---------8-7--------8---7---3-5-7----------8-7------8---7-8-7-----|
88888888-----8----8---8---8-------00000000-----0------0-------10~~|
********     *    *   *   *       ********     *      *  





0:58


1
1515151515151515181818181818181817171717171717172020202020202020-|
-----------------------------------------------------------------|
-----------------------------------------------------------------|
-----------------------------------------------------------------|
-----------------------------------------------------------------|
-----------------------------------------------------------------|
2
-----------------------------------------------------------------|
-----------------------------------------------------------------|
-----------------------------------------------------------------|
-----------------------------------------------------------------|
-----------------------------------------------------------------|
-8-8-8-8-8-8-8-8-5-5-5-5-5-8-8-8-0-0-0-0-0-0-0-0-0-0-0-0-0-3-3-3-|


1
------------------------------------------------1717171717171717-|
181818181818181820202020202020201515151515151515-----------------|
-----------------------------------------------------------------|
-----------------------------------------------------------------|
-----------------------------------------------------------------|
-----------------------------------------------------------------|
2
--------------------------------------------------------------|
--------------------------------------------------------------|
--------------------------------------------------------------|
--------------------------------------------------------------|
---------------------------------------------------3-3---3-3--|
-8-8-8-8-8-8-8-8-5-5-5-5-5-8-8-8-0-0-0-0-0-0-0-0-0-3-3-0-3-3--|
                                                 *     *




1
1515151515151515181818181818181817171717171717172020202020202020-|
-----------------------------------------------------------------|
-----------------------------------------------------------------|
-----------------------------------------------------------------|
-----------------------------------------------------------------|
-----------------------------------------------------------------|
2
-----------------------------------------------------------------|
-----------------------------------------------------------------|
-----------------------------------------------------------------|
-----------------------------------------------------------------|
-----------------------------------------------------------------|
-8-8-8-8-8-8-8-8-5-5-5-5-5-8-8-8-0-0-0-0-0-0-0-0-0-0-0-0-0-3-3-3-|


1
------------------------------------------------17171717-|
181818181818181820202020202020201515151515151515---------|
---------------------------------------------------------|
---------------------------------------------------------|
---------------------------------------------------------|
---------------------------------------------------------|
2
-------------------------------------------------------------|
-------------------------------------------------------------|
-------------------------------------------------------------|
-------------------------------------------------------------|
---------------------------------------------------3-3---PH--|
-8-8-8-8-8-8-8-8-5-5-5-5-5-8-8-8-0-0-0-0-0-0-0-0-0-3-3-0-3~~-|
                                                 *     *




1:21


------------------------------------------------------------------|
------------------------------------------------------------------|
------------------------------------------------------------------|
------------------------------------------------------------------|
-00000000-0-00-00----0-00-00----00000000-0-00-00--0000-00--0-0-0--|
-00000000-0-00-00----0-00-00----00000000-0-00-00--0000-00--0-0-0--|
 ******** * ** **    * ** **    ******** * ** **  **** **  * * *

------------------------------------------------------------------|
------------------------------------------------------------------|
------------------------------------------------------------------|
------------------------------------------------------------------|
-00000000-0-00-00----0-00-00----00000000-0-00-00--0000-00--0-0-0--|
-00000000-0-00-00----0-00-00----00000000-0-00-00--0000-00--0-0-0--|
 ******** * ** **    * ** **    ******** * ** **  **** **  * * *



1:34

                                    L
------------------------------------------------|
------------------------------------------------|
------------------------------------------------|
------------------------------------------------|
--------------)------)--00-0-0-0-----00-0-0-0---|
-0--0--0--0-3----0-2----00-0-0-0-----00-0-0-0---|
    *     *      *      ** * * *     ** * * *

------------------------------------------------|
------------------------------------------------|
------------------------------------------------|
------------------------------------------------|
--------------)------)--00-0-0-0-----00-0-0-0---|
-0--0--0--0-3----0-2----00-0-0-0-----00-0-0-0---|
    *     *      *      ** * * *     ** * * *




1;46


------------------------------------------------------------------|
------------------------------------------------------------------|
------------------------------------------------------------------|
----------------)----------------------------------------------5--|
-5-------------4----------------5-------------4------5-4-----4----|
---3-0-0-0-2-0----0-0-0-0-0-0-0---3-0-0-0-2-0----0-3-----0-3------|
     *   *   *    *     *           *   *   *    *       *


------------------------------------------------------------------|
------------------------------------------------------------------|
------------------------------------------------------------------|
----------------)-------------------------------------------------|
-5-------------4----------------5-------------4------4-----4-4-4--|
---3-0-0-0-2-0----0-0-0-0-0-0-0---3-0-0-0-2-0----0-0-2-0-0-2-2-2--|
     *   *   *    *     *           *   *   *    * *   * *



1:58


B
------------------------------------------------------------------|
------------------------------------------------------------------|
------------------------------------------------------------------|
---------------------------------------------------------------5--|
-5-------------4-----------------5-------------4-----5-4-----4----|
---3-0-0-0-2-0---0-0-000-0-0-0-0---3-0-0-0-2-0---0-3-----0-3------|
     *   *   *   * * *** *   *       *   *   *   *       *

-----------------------------------------------------------------|
-----------------------------------------------------------------|
-----------------------------------------------------------------|
-----------------------------------------------------------------|
-5-------------4-----------------5-------------4------)-----)----|
---3-0-0-0-2-0---0-0-000-0-0-0-0---3-0-0-0-2-0---0-0-3---0-2-----|
     *   *   *   * * *** *   *       *   *   *   * *     *



2:09


1
1515151515151515181818181818181817171717171717172020202020202020-|
-----------------------------------------------------------------|
-----------------------------------------------------------------|
-----------------------------------------------------------------|
-----------------------------------------------------------------|
-----------------------------------------------------------------|
2
-----------------------------------------------------------------|
-----------------------------------------------------------------|
-----------------------------------------------------------------|
-----------------------------------------------------------------|
-----------------------------------------------------------------|
-8-8-8-8-8-8-8-8-5-5-5-5-5-8-8-8-0-0-0-0-0-0-0-0-0-0-0-0-0-3-3-3-|


1
------------------------------------------------1717171717171717-|
181818181818181820202020202020201515151515151515-----------------|
-----------------------------------------------------------------|
-----------------------------------------------------------------|
-----------------------------------------------------------------|
-----------------------------------------------------------------|
2
--------------------------------------------------------------|
--------------------------------------------------------------|
--------------------------------------------------------------|
--------------------------------------------------------------|
---------------------------------------------------3-3---3-3--|
-8-8-8-8-8-8-8-8-5-5-5-5-5-8-8-8-0-0-0-0-0-0-0-0-0-3-3-0-3-3--|
                                                 *     *



1
1515151515151515181818181818181817171717171717172020202020202020-|
-----------------------------------------------------------------|
-----------------------------------------------------------------|
-----------------------------------------------------------------|
-----------------------------------------------------------------|
-----------------------------------------------------------------|
2
-----------------------------------------------------------------|
-----------------------------------------------------------------|
-----------------------------------------------------------------|
-----------------------------------------------------------------|
-----------------------------------------------------------------|
-8-8-8-8-8-8-8-8-5-5-5-5-5-8-8-8-0-0-0-0-0-0-0-0-0-0-0-0-0-3-3-3-|


1
------------------------------------------------17171717-|
181818181818181820202020202020201515151515151515---------|
---------------------------------------------------------|
---------------------------------------------------------|
---------------------------------------------------------|
---------------------------------------------------------|
2
-------------------------------------------------------------|
-------------------------------------------------------------|
-------------------------------------------------------------|
-------------------------------------------------------------|
---------------------------------------------------3-3---PH--|
-8-8-8-8-8-8-8-8-5-5-5-5-5-8-8-8-0-0-0-0-0-0-0-0-0-3-3-0-3~~-|
                                                 *     *




2:32


1
---__________--_________---------------------PH-__---------------|
---)         13PB-------(----------------------/  \--------------|
-12------------12--------12~~~~--------------9-10-9--------------|
----------------------------------------------------12-10--------|
----------------------------------------------------------12~----|
-----------------------------------------------------------------|
2
-----------------------------------------------------------------|
-----------------------------------------------------------------|
-----------------------------------------------------------------|
-----------------------------------------------------------------|
-----------------------------------------------------------------|
-8-8-8-8-8-8-8-8-5-5-5-5-5-8-8-8-0-0-0-0-0-0-0-0-0-0-0-0-0-3-3-3-|



1                                      ________________
---------------------------------------)    20 PB     (--------|
-/15-17-18---------------------------20--------20--------------|
-----------14~-------14-15-17-17/19~---------------------------|
---------------------------------------------------------------|
---------------------------------------------------------------|
---------------------------------------------------------------|
2
--------------------------------------------------------------|
--------------------------------------------------------------|
--------------------------------------------------------------|
--------------------------------------------------------------|
---------------------------------------------------3-3---3-3--|
-8-8-8-8-8-8-8-8-5-5-5-5-5-8-8-8-0-0-0-0-0-0-0-0-0-3-3-0-3-3--|
                                                 *     *


1
---__________--_________-----------------------__---------------|
---)         13PB-------(---------------------/  \--------------|
-12------------12--------12~~~~--------------9-10-9-------------|
----------------------------------------------------12-10-------|
----------------------------------------------------------12~---|
----------------------------------------------------------------|
2
-----------------------------------------------------------------|
-----------------------------------------------------------------|
-----------------------------------------------------------------|
-----------------------------------------------------------------|
-----------------------------------------------------------------|
-8-8-8-8-8-8-8-8-5-5-5-5-5-8-8-8-0-0-0-0-0-0-0-0-0-0-0-0-0-3-3-3-|



1                                      ________________
---------------------------------------)    20 PB     (--------|
-/15-17-18---------------------------20--------20--------------|
-----------14~-------14-15-17-17/19~---------------------------|
---------------------------------------------------------------|
---------------------------------------------------------------|
---------------------------------------------------------------|
2
2
-------------------------------------------------------------|
-------------------------------------------------------------|
-------------------------------------------------------------|
-------------------------------------------------------------|
---------------------------------------------------3-3---PH--|
-8-8-8-8-8-8-8-8-5-5-5-5-5-8-8-8-0-0-0-0-0-0-0-0-0-3-3-0-3~~-|
                                                 *     *



2:54


----------------------------------------------------------------------------|
----------------------------------------------------------------------------|
----------------------------------------------------------------------------|
-----------------10-------------------------------------10------------------|
---------12-10--------12---10---7-8-10----------12-10--------12---10---7~~--|
88888888-------8----8----8----8--------00000000-------0----0----0----0------|
********       *    *    *    *        ********       *    *    *    *

----------------------------------------------------------------------------|
----------------------------------------------------------------------------|
-----------------------------------------------------------------_----------|
-----------------10-------------------------------------10-7----/ \---------|
---------12-10--------12---10---7-8-10----------12-10----------7-8-7--------|
88888888-------8----8----8----8--------00000000-------0------0-------10~~---|
********       *    *    *    *        ********       *      *   




3:06

L
----------------------------------------------------------------------------|
----------------------------------------------------------------------------|
----------------------------------------------------------------------------|
-----------------10-------------------------------------10------------------|
---------12-10--------12---10---7-8-10----------12-10--------12---10---7~~--|
88888888-------8----8----8----8--------00000000-------0----0----0----0------|
********       *    *    *    *        ********       *    *    *    *
R
------------------------------------------------------------------|
------------------------------------------------------------------|
------------------------------------------------------------------|
----------------7---------------------------------7---------------|
---------8-7--------8---7---3-5-7----------8-7--------8---7---3~~-|
88888888-----8----8---8---8-------00000000-----0----0---0---0-----|
********     *    *   *   *       ********     *    *   *   *


L
-------------------------------------------------------------------------|
-------------------------------------------------------------------------|
-----------------------------------------------------------------_-------|
-----------------10-------------------------------------10-7----/ \------|
---------12-10--------12---10---7-8-10----------12-10----------7-8-7-----|
88888888-------8----8----8----8--------00000000-------0------0-------10~~|
********       *    *    *    *        ********       *      *   
R
------------------------------------------------------------------|
------------------------------------------------------------------|
----------------------------------------------------------_-------|
----------------7---------------------------------7------/ \------|
---------8-7--------8---7---3-5-7----------8-7------8---7-8-7-----|
88888888-----8----8---8---8-------00000000-----0------0-------10~~|
********     *    *   *   *       ********     *      *  



---------------------------------------------------|
---------------------------------------------------|
---------------------------------------------------|
---------------------------------------------------|
-00000000-0-00-00----0-00-00----00000000-0-00-00---|
-00000000-0-00-00----0-00-00----00000000-0-00-00---|
 ******** * ** **    * ** **    ******** * ** **
Добавлено: 02.06.2013
Другие материалы по этой песне:
  • Аккорды и текст

Страница создана 02.06.2013
http://primanota.ru/bury-tomorrow/sceptres-chords.htm
Привет, Гость.
Предлагаем пройти революционный курс по гитаре.
Подарок от PrimaNota.Ru, забирай!