PrimaNota.ru - самый крупный в мире бесплатный архив песенных текстов, аккордов, табулатур и нот


Buckethead - Wondering - таба, видео

Регистрация Запомнить меня
Войти через:  Facebook Google Twitter Vk Yandex Mail.ru

Buckethead - Wondering - таба, видео

Печатать
Просмотров: 173
Уроки эстрадного вокала в Санкт-Петербурге
Wondering by Buckethead
from Colma
Cyberoctave Music 1998

Tune Down:
6th=Eb 5th=Ab 4th=Db 3rd=Gb 2nd=Bb 1st=Eb

Section 1:
E---------------7------------------------------------------------------|
B--7-9~-----7-9---9-7------4-4h5------4-4h5-------4---4h5-----4---4h5--|
G--------------------------------6-----------6----4---4-------4---4----|
D----------------------------------------------------------------------|
A-------------------------4-----------4-----------0-0-0-------0-0-0----|
E--0--------0----------------------------------------------------------|

E------------------------------------7-----------7---------------------|
G--4-4h5---------4-4h5---------4-4h5-------4-4h5-----------------------|
B--------4-------------4-----------------------------------------------|
D----------6-------------6---------------------------------------------|
A------------------------------0-----------0---------------------------|
E--4-------------4-----------------------------------------------------|

E------------------------------------7-----------7---------------------|
B--4-4h5---------4-4h5---------4-4h5-------4-4h5-----------------------|
G--------4-------------4-----------------------------------------------|
D----------6-------------6---------------------------------------------|
A------------------------------0-----------0---------------------------|
E--4-------------4-----------------------------------------------------|

Section 2:
E---------------7------------------------------------------------------|
B--7-9~-----7-9---9-7-----4-4h5-------4-4h5-------4---4h5-----4---4h5--|
G-------------------------------6-----------6-----4---4-------4---4----|
D----------------------------------------------------------------------|
A-------------------------4-----------4-----------0-0-0-------0-0-0----|
E--0--------0----------------------------------------------------------|

E------------------------------------7-----------7---------------------|
B--4-4h5---------4-4h5---------4-4h5-------4-4h5-----------------------|
G--------4-------------4-----------------------------------------------|
D----------6-------------6---------------------------------------------|
A------------------------------0-----------0---------------------------|
E--4-------------4-----------------------------------------------------|

E------------------------------------7-----------7---------------------|
B--4-4h5---------4-4h5---------4-4h5-------4-4h5-----------------------|
G--------4-------------4-----------------------------------------------|
D----------6-------------6---------------------------------------------|
A------------------------------0-----------0---------------------------|
E--4-------------4-----------------------------------------------------|

Section 3:
E---------------7----------------------7-------------------------------|
B--7-9~-----7-9---9-7-----7-9~-----7-9---9-7---------------------------|
G----------------------------------------------------------------------|
D----------------------------------------------------------------------|
A----------------------------------------------------------------------|
E--0--------0-------------0--------0-----------------------------------|

E----------------------------------------------------------------------|
B--4-4h5-------4-4h5-------4-4h5-------4-4h5---------------------------|
G--------6-----------6-----------4-----------4-------------------------|
D----------------------------------------------------------------------|
A--4-----------4-----------0-----------0-------------------------------|
E----------------------------------------------------------------------|

E------------------------------------7-----------7---------------------|
B--4-4h5---------4-4h5---------4-4h5-------4-4h5-----------------------|
G--------4-------------4-----------------------------------------------|
D----------6-------------6---------------------------------------------|
A------------------------------0-----------0---------------------------|
E--4-------------4-----------------------------------------------------|

E------------------------------------7-----------7---------------------|
B--4-4h5---------4-4h5---------4-4h5-------4-4h5-----------------------|
G--------4-------------4-----------------------------------------------|
D----------6-------------6---------------------------------------------|
A------------------------------0-----------0---------------------------|
E--4-------------4-----------------------------------------------------|

E----------------------------------------------------------------------|
B--9--7--5--4----------------0-----------------------------------------|
G---------------4s1--------1-------------------------------------------|
D------------------------5---------------------------------------------|
A---------------0------2-----------------------------------------------|
E--0-----------0-----0-------------------------------------------------|
Добавлено: 25.06.2012
Другие материалы по этой песне:

Страница создана 25.06.2012
http://primanota.ru/buckethead/wondering-chords.htm
Привет, Гость.
Предлагаем пройти революционный курс по гитаре.
Подарок от PrimaNota.Ru, забирай!