PrimaNota.ru - самый крупный в мире бесплатный архив песенных текстов, аккордов, табулатур и нот


Buckethead - Skeleton Dance - таба, видео

Регистрация Запомнить меня
Войти через:  Facebook Google Twitter Vk Yandex Mail.ru

Buckethead - Skeleton Dance - таба, видео

Печатать
Просмотров: 182
Im surprised no one tabbed this. I'll give it a go. hope you like it!!!! some bits 
are actually quite difficult to tab but this is my best shot.

Intro: 0:00 - 0:12 (rhythm track)

E|------5-----|------5-----|------5-----|------5-----|
B|----6---6---|----6---6---|----5---5---|----5---5---|
G|----7-----7-|----7-----7-|----5-----5-|----5-----5-|
D|----7-------|----7-------|----7-------|----7-------|
A|-5--5-------|-5--5-------|----7-------|----7-------|
E|------------|------------|-5--5-------|-5--5-------|

E|-----6-----|-----6-----|------5-----|------5-----|
B|---6---6---|---6---6---|----5---5---|----5---5---|
G|---6-----6-|---6-----6-|----5-----5-|----5-----5-|
D|---8-------|---8-------|----7-------|----7-------|
A|---8-------|---8-------|----7-------|----7-------|
E|-6-6-------|-6-6-------|-5--5-------|-5--5-------|

0:12 - 0:35

E|------------------------------------------|--------------1p0-1-0--------------------------|
B|-3p1-3------1--1h3--1---------------------|-3p1-3--3-3------------------------------------|
G|----------3------------3-2-3----3-3--3-2--|-----------------------3-2-3---3-5-5--3-2h3-2--|
D|------------------------------------------|-----------------------------------------------|
A|------------------------------------------|-----------------------------------------------|
E|------------------------------------------|-----------------------------------------------|

0:36 - 1:00

E|-------10-10--------------------------------|----12-12h13-12-10-8-10----------|
B|-10-10---------10-8----------------------8--|-10----------------------8-10-10-|
G|--------------------10-9-------10-9---10----|---------------------------------|
D|--------------------------7-10--------------|---------------------------------|
A|--------------------------------------------|---------------------------------|
E|--------------------------------------------|---------------------------------|

E|----------------------------------------------------------8-6---------------------|
B|-10-8----------------------------11-10----10-8----8-6---------10-8-10---10-8-10---|
G|------10-9-10-9h10------------10-------10------10-----9-9-------------7---------7-|
D|-------------------10-10---12-----------------------------------------------------|
A|----------------------------------------------------------------------------------|
E|----------------------------------------------------------------------------------|

E|--------------------------------------|
B|-----6-6-8-6-5-6----------------------|
G|-7-7-------------5-7-----5-5--3-3-2-2-|
D|---------------------5h7--------------|
A|--------------------------------------|
E|--------------------------------------|

1:01 - 1:24

E|-------------------------------------------------|---------1-1-1-3-1-0----------1-0---0-1-3-3/5|
B|3p1-3----5-6--6h8-6------------------------------|-3-1-3---------------------------------------|
G|----------------------3-2-3----------------------|----------------------3-2-3------------------|
D|------------------------------5-5-7-7--5-5--3-3--|---------------------------------------------|
A|------------------------------7-7-8-8--7-7--5-5--|---------------------------------------------|
E|-------------------------------------------------|---------------------------------------------|

1:25 - 1:37

E|---------------------------------------------------------------------------------|
B|-8-6-5---------6-5-------------------10-10-8-8h10-10-10--6-6-5-5-----------------|
G|-------7-5-7-------7-5-7-----5-5h7-------------------------------7-7-7-5-7-7---7-|
D|-------------------------5h7-----------------------------------------------------|
A|---------------------------------------------------------------------------------|
E|---------------------------------------------------------------------------------|

1:38 - 1:48

E|-----------------------------------------------------------|
B|-----------------------------------------------------------|
G|-----------------------------------------------------------|
D|-0-2-3-5-5/7-0-7/10--8-7---------5-5h7--5------------------|
A|-----------------------------3-5-----------8-7-7-5-3h5-5-5-|
E|---------------------------5-------------------------------|

1:49 - 2:11

E|---------------------8-6-5---5-5---------------------------------------------|
B|-----6-5-----6-5-6-8-------8-----6-5-6-6-----------5-6-5---------6-5-6-8-6-5-|
G|---5-----5-7-----------------------------5-7-7-7-7-------5-7-7-7-------------|
D|-7---------------------------------------------------------------------------|
A|-----------------------------------------------------------------------------|
E|-----------------------------------------------------------------------------|

E|---------------6-5---5-6-6-5-----5-----------------------------------------6-5-----|
B|---6-5-8-6-5-------8---------6-5--------------------------------6-6--5-6-8---------|
G|-7-----------7---------------------5-5-5-----5-7-5-----------------------------7-7-|
D|-------------------------------------------7-------7-5-5-7-7--7--------------------|
A|-----------------------------------------------------------------------------------|
E|-----------------------------------------------------------------------------------|

E|----10-12-13-12-10-8-10------------------------8-6-5-5--5-|
B|-10---------------------8-10-6-5-6-5-5---5-6-8------------|
G|---------------------------------------7------------------|
D|----------------------------------------------------------|
A|----------------------------------------------------------|
E|----------------------------------------------------------|

2:12 - 2:23

E|-5-5--3-3--1-1--0-0-|-5-5--3-3--1-1--0-0-|-5-5--3-3--1-1--0-0-|-5-6-8--6-5-3-5-3-1-1-----|
B|-6-6--5-5--3-3--1-1-|-6-6--5-5--3-3--1-1-|-6-6--5-5--3-3--1-1-|-6-8-10-8-6-5-6-5-3-3-----|
G|--------------------|--------------------|--------------------|----------------------0---|
D|--------------------|--------------------|--------------------|------------------------3-|
A|--------------------|--------------------|--------------------|--------------------------|
E|--------------------|--------------------|--------------------|--------------------------|

2:23 - 2:35

E|------5-----|------5-----|------5-----|------5-----|-----6-----|-----6-----|------5-----|
B|----6---6---|----6---6---|----5---5---|----5---5---|---6---6---|---6---6---|----5---5---|
G|----7-----7-|----7-----7-|----5-----5-|----5-----5-|---6-----6-|---6-----6-|----5-----5-|
D|----7-------|----7-------|----7-------|----7-------|---8-------|---8-------|----7-------|
A|-5--5-------|-5--5-------|----7-------|----7-------|---8-------|---8-------|----7-------|
E|------------|------------|-5--5-------|-5--5-------|-6-6-------|-6-6-------|-5--5-------|

E|---------------|
B|---------------|
G|------5--------|
D|----7----------|
A|-7-------[7]---|
E|---------------|

harmonic on the last note

ending: 2:36 - 2:40
Добавлено: 02.05.2012
Другие материалы по этой песне:

Страница создана 02.05.2012
http://primanota.ru/buckethead/skeleton-dance-chords.htm
Привет, Гость.
Предлагаем пройти революционный курс по гитаре.
Подарок от PrimaNota.Ru, забирай!