PrimaNota.ru - самый крупный в мире бесплатный архив песенных текстов, аккордов, табулатур и нот


Buckethead - Onions Unleashed - таба, видео

Регистрация Запомнить меня
Войти через:  Facebook Google Twitter Vk Yandex Mail.ru

Buckethead - Onions Unleashed - таба, видео

Печатать
Просмотров: 208
Уроки эстрадного вокала в Санкт-Петербурге
Standard tuning

beginning riff
|-------------|
|-------------|
|-------------|
|777--5-3-3---|
|777--5-3-3---|
|555--3-1-1---|
end beginning rif by ringing out
|--|
|--|
|--|
|5-|
|5-|
|3-|

main riff
|---------------------|
|---------------------|
|-------------------3-|
|2-2-2-223--2-2-2-223-|
|2-2-2-223--2-2-2-221-|
|0-0-0-001--0-0-0-00--|


riff 2
|-4444--0----4444---4----------|
|-4444--0----4444-----4--------|
|-6666--2----6666--------6-----|
|-6666--2----6666----------6---|
|-4444--0----4444--------------|
|------------------------------|

ending riff
|------|
|------|
|------|
|2-2-2-|
|2-2-2-|
|0-0-0-|
Добавлено: 02.05.2012
Другие материалы по этой песне:

Страница создана 02.05.2012
http://primanota.ru/buckethead/onions-unleashed-chords.htm
Привет, Гость.
Предлагаем пройти революционный курс по гитаре.
Подарок от PrimaNota.Ru, забирай!