PrimaNota.ru - самый крупный в мире бесплатный архив песенных текстов, аккордов, табулатур и нот


Buckethead - New Untitled Song - таба, видео

Регистрация Запомнить меня
Войти через:  Facebook Google Twitter Vk Yandex Mail.ru

Buckethead - New Untitled Song - таба, видео

Печатать
Просмотров: 205
     Buckethead - New, Untitled Song - Crossroads KC
     Seen a few other tabs on here, but never seen this
     I'll update the rest shortly, enjoy.. song is in
     Standard tuning.

|-----------------------------------------------------|
|-----------------------------------------------------|
|--8-9p8--------------13------8-9p8----------9--------|
|---------11-------------------------9----------------|
|------------11----11------------------9---7----------|
|--------------9--------------------------5-----------|

|---11-12p11-12p11-11-12p11-11------11-12p11-12s14-14-12s11-11-12---|
|------------------------------12-9---------------------------------|
|-------------------------------------------------------------------|
|-------------------------------------------------------------------|
|-------------------------------------------------------------------|
|-------------------------------------------------------------------|

|---11-12p11-12p11-11-12p11-11------11-12p11-12s14-14-12h14p12-11-12--|
|------------------------------12-9-----------------------------------|
|---------------------------------------------------------------------|
|---------------------------------------------------------------------|
|---------------------------------------------------------------------|
|---------------------------------------------------------------------|

|-----------------------------------------------------------|
|--------12------10---7--play x2------7-----5------play x2--| play twice
|-----11-------9--------------------8-----6-----3-----------| 
|--13-------11------9-------------9-----7-----6-------------|
|-----------------------------------------------------------|
|-----------------------------------------------------------|
     
|----------------------------------------------------------------------|
|----------------------------------------------------------------------|
|----------------------------------------------------------------------|
|--11h13h14-13-9-9h11-11s3s9s7--11h13h14-13-9-9h11p9-9h11-11s3s7-777---|
|----------------------------------------------------------------------|
|----------------------------------------------------------------------|

|-----------------------------------------------------------------------|
|-----------------------------------------------------------------------|
|--9-9-------9h11-11-11s13-13s14-13------9h11-11-11s13-13-13s16-16s18---|
|------9h11-------------------------9h11--------------------------------|
|-----------------------------------------------------------------------|
|-----------------------------------------------------------------------|

|----------------------------------------------------------------------------------------|
|--17p16-16h17-------17p16-16h17----------17p16-16h17-19-19h21b19-17p16-16h17------------|
|-------------16-16-----------------------------------------------------------9h11p9-9---|
|--------------------------------16-16h18------------------------------------------------|
|----------------------------------------------------------------------------------------|
|----------------------------------------------------------------------------------------|

|------------------------------------------------------------------------------------------------|
|--------------------------------------------------17p16-16h17-------------17p16-16h17-----------|
|-------9-9-11s13-13s14-13------9-9h11-11-11s13-13------------ 16----16b18------------16---------|
|--9h11--------------------9h11-----------------------------------18----------------------16b18--|
|------------------------------------------------------------------------------------------------|
|------------------------------------------------------------------------------------------------|
     Continued
|------------------------------------------|
|--19-17p16-16-16-16h17--------------------|
|-----------------------16----16b18-18-18--|
|--------------------------18--------------|
|------------------------------------------|
|------------------------------------------|

|----------------------------------------------------------------|
|----------------------------------------------------------------| play 4 times
|----------------------------------------------------------------|
|----------------------------------------------------------------|
|--11-9-9-9s11-11-11----11---------11--9-9--7-7-7---11-----------|
|---9-7-7-7s-9--9--9---9----12-11-9-9--7-7--5-5-5--9---12-11-9---|
 
     Guitar break 1    
|----------------------------------------------------------------|
|----------------------------------------------------------------| 
|----------------------------------------------------------------|
|-----------------------------------9h11p9-----------------------|
|--7-7-7---------------7h9s11--9h11------------------------------|
|--5-5-5---5s12s7--7h9-------------------------------------------|

     Guitar break 2
|---------------------------------------------------------------------|
|---------------------------------------------------------------------|
|---------------------------------------------------------------------|
|---------------------------------------------------------------------|
|----------9-9-9-9--6-6s7---7h9p7s6-6---11-11--9-9-9-9--6-6s7-7--gtr--|
|--9-11-9--7-7-7-7--4-4s5-7-----------7--9--9--7-7-7-7--4-4s5-5--fill-|
                          -------------

     guitar break 2, play through 3 times only through underlined
     part aka guitar fill, main riff of it is shown after
     the underlined guitar riff is again one of the ones buckethead
     has played live.

|--------------------------------------------------------------------------------------|
|--------------------------------------------------------------------------------------|
|--11b13-13-13-13b11p9-11b13-13-13-13b11------9h11-11b13-13-13---13-11-9h11p9s8-9-9-9--|
|----------------------------------------9h11------------------9-----------------------|
|--------------------------------------------------------------------------------------|
|--------------------------------------------------------------------------------------|

     Guitar solo riff 1
|------------------------------------------------------------------------------------|
|--12b14-14-14-9-12b14-12-12-12------------------------------------------------------| 
|------------------------------------9h11-11b13-13-13b11-11b13-11-9h11p9s8-9-9-9-----|
|-------------------------------9h11--------------------9------------------------11--|
|------------------------------------------------------------------------------------|
|------------------------------------------------------------------------------------|

     Guitar solo riff 2 - play 3 times, fill can be added at underline, use wah pedal
|--------------------------------------------------------------------------------------------|
|--------------------------------------------------------------------------------------------|
|-------9h11-11s13-------------9h11-11s13--------------------9h11p9s8-9---------GUITAR FILL--|
|--9h11------------11s9-9-9h11------------11s9-9-9------9h11------------9-9h11---------------|
|--------------------------------------------------9h11--------------------------------------|
|--------------------------------------------------------------------------------------------|

     Guitar solo riff 3, play twice with wah pedal, then improv the solo on scale below
     i believe the scale above is C natural minor.

|------------------------------------------9-11-12--|
|----------------------------------9-10-12----------| play twice
|---------------------6-8-9-8-9-11------------------|
|---------------6-7-9-------------------------------|
|---------6-7-9-------------------------------------|
|---5-7-9-------------------------------------------|

|----------------------------------------------------------------|
|----------------------------------------------------------------| play 4 times
|----------------------------------------------------------------|
|----------------------------------------------------------------|
|--11-9-9-9s11-11-11----11---------11--9-9--7-7-7---11-----------|
|---9-7-7-7s-9--9--9---9----12-11-9-9--7-7--5-5-5--9---12-11-9---|

|----------------------------------------------------------------|
|----------------------------------------------------------------| 
|----------------------------------------------------------------|
|---------------------------WILL UPDATE REST ASAP----------------|
|----------------------------------------------------------------|
|--5s9s7s5s4s5-5s9h11p9s7s5s4s5-5s7-------------------------------

|---11-12p11-12p11-11-12p11-11------11-12p11-12s14-14-12h14p12-11-12--|
|------------------------------12-9-----------------------------------|
|---------------------------------------------------------------------|
|---------------------------------------------------------------------|
|---------------------------------------------------------------------|
|---------------------------------------------------------------------|

|---11-12p11-12p11-11-12p11-11------11-12p11-12s14-14-12h14p12-11-12--|
|------------------------------12-9-----------------------------------|
|---------------------------------------------------------------------|
|---------------------------------------------------------------------|
|---------------------------------------------------------------------|
|---------------------------------------------------------------------|

     Thank you if there is any errors that need correcting please let me know.
     video song http://www.youtube.com/watch?v=oQO1rYCCeDc
    
Добавлено: 02.03.2012
Другие материалы по этой песне:
  • Аккорды и текст

Страница создана 02.03.2012
http://primanota.ru/buckethead/new-untitled-song-chords.htm
Привет, Гость.
Предлагаем пройти революционный курс по гитаре.
Подарок от PrimaNota.Ru, забирай!