PrimaNota.ru - самый крупный в мире бесплатный архив песенных текстов, аккордов, табулатур и нот


Blood Red Shoes - Hope Youre Holding Up - текст песни, таба, видео

Регистрация Запомнить меня
Войти через:  Facebook Google Twitter Vk Yandex Mail.ru

Blood Red Shoes - Hope Youre Holding Up - текст песни, таба, видео

Печатать
Просмотров: 145
Blood Red Shoes
"Hope You're Holding Up"
tabbed by LillyLametta


E|----------------------------------------------------------------|   
H|----------------------------------------------------------------|  
G|----------------------------------------------------------------|  Intro
D|----------------------------------------------------------------|   2x
A|----------------------------------------------------------------|
E|-5-5-5-5-5-5-5-5-3-3-3-3-3-3-3-3-8-8-8-8-8-8-8-8-8-8-8-8-8-8-8-8|



E|----------------------------------------------------------------|
H|----------------------------------------------------------------|
G|----------------------------------------------------------------|    4x
D|----------------------------------------------------------------|
A|----------------------------------------------------------------|
E|-5-----12-3--------8--------------------------------------------|



E|----------------------------------------------------------------|   
H|----------------------------------------------------------------|  
G|----------------------------------------------------------------|    2x
D|----------------------------------------------------------------|   
A|----------------------------------------------------------------|
E|-5-5-5-5-5-5-5-5-3-3-3-3-3-3-3-3-8-8-8-8-8-8-8-8-8-8-8-8-8-8-8-8|



E|----------------------------------------------------------------|   
H|----------------------------------------------------------------|  
G|----------------------------------------------------------------|  Refrain
D|----------------------------------------------------------------|    2x
A|----------------------------------------------------------------|
E|-5-5-5-5-5-5-5-5-3-3-3-3-3-3-3-3-8-8-8-8-8-8-8-8-8-8-8-8-8-8-8-8|



E|----------------------------------------------------------------|
H|----------------------------------------------------------------|
G|----------------------------------------------------------------|    3x
D|----------------------------------------------------------------|
A|----------------------------------------------------------------|
E|-5-----12-3--------8--------------------------------------------|


E|----------------------------------------------------------------|   
H|----------------------------------------------------------------|  
G|----------------------------------------------------------------|    2x
D|----------------------------------------------------------------|   
A|----------------------------------------------------------------|
E|-5-5-5-5-5-5-5-5-3-3-3-3-3-3-3-3-8-8-8-8-8-8-8-8-8-8-8-8-8-8-8-8|


E|----------------------------------------------------------------|   
H|----------------------------------------------------------------|  
G|----------------------------------------------------------------|  Refrain
D|----------------------------------------------------------------|    3x
A|----------------------------------------------------------------|
E|-5-5-5-5-5-5-5-5-3-3-3-3-3-3-3-3-8-8-8-8-8-8-8-8-8-8-8-8-8-8-8-8|


E|-----------------------------------------------------------------------|   
H|-----------------------------------------------------------------------|  
G|-----------------------------------------------------------------------|    
D|-----------------------------------------------------------------------|5x 
A|-----------------------------------------------------------------------|
E|-5-5-5-5-5-5-5-5-3-3-3-3-3-3-3-3-8-8-8-8-8-8-8-8-8-15-15-15-15-13-13-13|


E|----------------------------------------------------------------|   
H|----------------------------------------------------------------|  
G|----------------------------------------------------------------|  Refrain
D|----------------------------------------------------------------|    4x
A|----------------------------------------------------------------|
E|-5-5-5-5-5-5-5-5-3-3-3-3-3-3-3-3-8-8-8-8-8-8-8-8-8-8-8-8-8-8-8-8|



E|----------------------------------------------------------------|   
H|----------------------------------------------------------------|  
G|----------------------------------------------------------------|  
D|----------------------------------------------------------------|    
A|----------------------------------------------------------------|
E|5-5-5-5-5-5-5-5-5-5-5-5-5-7-7-7-8-8-8-8-8-8-8-8-3-3-3-3-3-3-3-3-|


E|----------------------------------------------------------------|   
H|----------------------------------------------------------------|  
G|----------------------------------------------------------------|  
D|----------------------------------------------------------------|   14x 
A|----------------------------------------------------------------|
E|5-5-5-5-5-5-5-5-0-0-0-0-0-0-0-0-8-8-8-8-8-8-8-8-3-3-3-3-3-0-3-4-|

Добавлено: 07.05.2012
Другие материалы по этой песне:
  • Аккорды и текст

Страница создана 07.05.2012
http://primanota.ru/blood-red-shoes/hope-youre-holding-up-chords.htm
Привет, Гость.
Предлагаем пройти революционный курс по гитаре.
Подарок от PrimaNota.Ru, забирай!