PrimaNota.ru - самый крупный в мире бесплатный архив песенных текстов, аккордов, табулатур и нот


Blood Red Shoes - You Bring Me Down - текст песни, таба, видео

Регистрация Запомнить меня
Войти через:  Facebook Google Twitter Vk Yandex Mail.ru

Blood Red Shoes - You Bring Me Down - текст песни, таба, видео

Печатать
Просмотров: 261
Уроки эстрадного вокала в Санкт-Петербурге
-------------------------------------------------------------------------------
                             You Bring Me Down - Blood Red Shoes
-------------------------------------------------------------------------------
Tabbed by: Mmm_Pie
Email: MmmPie06@hotmail.co.uk


Intro:

e|-------------------------------------------------------------------------|
B|----88-------------------------------------------------------------------|
G|----99-99-77-------------------------------------------------------------|
D|----77-99-77-------------------------------------------------------------|
A|-------77-77-------------------------------------------------------------|
E|-------------------------------------------------------------------------|
x8

Intro 2:
e|-------------------------------------------------------------------------|
B|----88-------------------------------------------------------------------|
G|----99-99----------------------------------------------------------------|
D|----77-99-99-------------------------------------------------------------|
A|-------77-99-------------------------------------------------------------|
E|----------77-------------------------------------------------------------|
x4

Pre-Chrous
e|-------------------------------------------------------------------------|
B|-------------------------------------------------------------------------|
G|----9----9------9----9---------------------------------------------------|
D|-----------8-----------8-3333333333333333--------------------------------|
A|-77---77-----77---77-----------------------------------------------------|
E|-------------------------------------------------------------------------|
x2


Chorus
e|-------------------------------------------------------------------------|
B|-------------------7799779977997799--------------------------------------|
G|-555555555555555---7788778877887788--------------------------------------|
D|-555555555555555---7777777777777777--------------------------------------|
A|-333333333333333---------------------------------------------------------|
E|-------------------------------------------------------------------------|

Interlude
e|-------------------------------------------------------------------------|
B|-------------------------------------------------------------------------|
G|---33333333-55555555-----------------------------------------------------|
D|-------------------------------------------------------------------------|
A|-------------------------------------------------------------------------|
E|-------------------------------------------------------------------------|

Song order:
Intro
Intro 2
Pre-Chorus
Intro
Intro 2
Pre-Chorus
Chorus
Interlude
Chorus


| /  slide up
| \  slide down
| h  hammer-on
| p  pull-off
| ~  vibrato
| +  harmonic
| x  Mute note
============================================================================
Official site: www.bloodredshoes.co.uk
Добавлено: 27.02.2012
Другие материалы по этой песне:

Страница создана 24.02.2012
http://primanota.ru/blood-red-shoes/you-bring-me-down-chords.htm
Привет, Гость.
Предлагаем пройти революционный курс по гитаре.
Подарок от PrimaNota.Ru, забирай!