PrimaNota.ru - самый крупный в мире бесплатный архив песенных текстов, аккордов, табулатур и нот


Blood Red Shoes - Dont Ask - текст песни, таба, видео

Регистрация Запомнить меня
Войти через:  Facebook Google Twitter Vk Yandex Mail.ru

Blood Red Shoes - Dont Ask - текст песни, таба, видео

Печатать
Просмотров: 188
Авторы музыки: Blood Red Shoes
Авторы текста: Blood Red Shoes
------------------------------------------------------
             Blood Red Shoes - Don't Ask
------------------------------------------------------


Tuning: EADGBe


  (0:01) Intro (play 2x)
e|---------------------------------------------------|
B|---------------------------------------------------|
G|--16-16-16-16-16-16-16-16-12-12-12-12-12-12-12-12--|
D|---------------------------------------------------|
A|--14-14-14-14-14-14-14-14-10-10-10-10-10-10-10-10--|
E|---------------------------------------------------|

e|---------------------------------------------------|
B|---------------------------------------------------|
G|--16-16-16-16-16-16-16-16-12-12-12-12-12-12-12-12--|
D|---------------------------------------------------|
A|--14-14-14-14-14-14-14-14-10-10-10-10-10-10-10-10--|
E|---------------------------------------------------|

e|---------------------------------------------------|
B|---------------------------------------------------|
G|--7-7-7-7-7-7-7-7----------------------------------|
D|------------------7-7-7-7-7-7-7-7------------------|
A|--5-5-5-5-5-5-5-5-----------------7-7-7-7-7-7-7-7--|
E|------------------5-5-5-5-5-5-5-5-0-0-0-0-0-0-0-0--|


  (0:27) Verse (play 4x)
e|---------------------------------------------------|
B|--12-0--8--0--12-0--8--0--12-0--8--0--12-0--8--0---|
G|---------------------------------------------------|
D|---------------------------------------------------|
A|---------------------------------------------------|
E|---------------------------------------------------|

e|---------------------------------------------------|
B|--5--0--5--0--8--0--8--0--5--0--5--0--8--0--8--0---|
G|---------------------------------------------------|
D|---------------------------------------------------|
A|---------------------------------------------------|
E|---------------------------------------------------|


  (0:54) Pre-chorus
e|---------------------------------------------------|
B|---------------------------------------------------|
G|---------------------------------------------------|
D|--5--5--5--5-/9--9--9--9---------------------------|
A|--------------------------7--7--7--7--7--7--7--7---|
E|----------------------------------0--0--------0--0-|

e|---------------------------------------------------|
B|---------------------------------------------------|
G|---------------------------------------------------|
D|--5--5--5--5-/9--9--9--9---------------------------|
A|--------------------------7--7--7--7--7--7--7--7---|
E|----------------------------------0--0--------0--0-|

e|---------------------------------------------------|
B|---------------------------------------------------|
G|---------------------------------------------------|
D|----------------------------------------2-2-2-2-2--|
A|--------------------------------2-2-2-2-2-2-2-2-2--|
E|--7--7--7--7\3--3/5--5--0-0-0-0-0-0-0-0-0-0-0-0-0--|


  (1:13) Chorus (play 2x)
e|---------------------------------------------------|
B|---------------------------------------------------|
G|--16-16-16-16-16-16-16-16-12-12-12-12-12-12-12-12--|
D|---------------------------------------------------|
A|--14-14-14-14-14-14-14-14-10-10-10-10-10-10-10-10--|
E|---------------------------------------------------|

e|---------------------------------------------------|
B|---------------------------------------------------|
G|--16-16-16-16-16-16-16-16-12-12-12-12-12-12-12-12--|
D|---------------------------------------------------|
A|--14-14-14-14-14-14-14-14-10-10-10-10-10-10-10-10--|
E|---------------------------------------------------|

e|---------------------------------------------------|
B|---------------------------------------------------|
G|--7-7-7-7-7-7-7-7----------------------------------|
D|------------------7-7-7-7-7-7-7-7------------------|
A|--5-5-5-5-5-5-5-5-----------------7-7-7-7-7-7-7-7--|
E|------------------5-5-5-5-5-5-5-5-0-0-0-0-0-0-0-0--|


  (1:39) Verse (play 3x)
e|---------------------------------------------------|
B|--12-0--8--0--12-0--8--0--12-0--8--0--12-0--8--0---|
G|---------------------------------------------------|
D|---------------------------------------------------|
A|---------------------------------------------------|
E|---------------------------------------------------|

e|---------------------------------------------------|
B|--5--0--5--0--8--0--8--0--5--0--5--0--8--0--8--0---|
G|---------------------------------------------------|
D|---------------------------------------------------|
A|---------------------------------------------------|
E|---------------------------------------------------|


  (1:59) Pre-chorus
e|---------------------------------------------------|
B|---------------------------------------------------|
G|---------------------------------------------------|
D|--5--5--5--5-/9--9--9--9---------------------------|
A|--------------------------7--7--7--7--7--7--7--7---|
E|----------------------------------0--0--------0--0-|

e|---------------------------------------------------|
B|---------------------------------------------------|
G|---------------------------------------------------|
D|--5--5--5--5-/9--9--9--9---------------------------|
A|--------------------------7--7--7--7--7--7--7--7---|
E|----------------------------------0--0--------0--0-|

e|---------------------------------------------------|
B|---------------------------------------------------|
G|---------------------------------------------------|
D|----------------------------------------2-2-2-2-2--|
A|--------------------------------2-2-2-2-2-2-2-2-2--|
E|--7--7--7--7\3--3/5--5--0-0-0-0-0-0-0-0-0-0-0-0-0--|


  (2:19) Bridge
e|---------------------------------------------------|
B|---------------------------------------------------|
G|---------------------------------------------------|
D|--2----x--2-2-2----x--7-7-7----x--5-5-5----x--9-9--|
A|--2----x--2-2-2----x--7-7-7----x--5-5-5----x--9-9--|
E|--0----x--0-0-0----x--5-5-5----x--3-3-3----x--7-7--|

e|---------------------------------------------------|
B|---------------------------------------------------|
G|-------------------x-12-12-12--x-12-12-12----------|
D|--9----x--9-9-9----x-----------x-----------x--2-2--|
A|--9----x--9-9-9----x-10-10-10--x-10-10-10--x--2-2--|
E|--7----x--7-7-7----------------------------x--0-0--|

e|---------------------------------------------------|
B|---------------------------------------------------|
G|---------------------------------------------------|
D|--2----x--2-2-2----x--7-7-7----x--5-5-5----x--4-4--|
A|--2----x--2-2-2----x--7-7-7----x--5-5-5----x--4-4--|
E|--0----x--0-0-0----x--5-5-5----x--3-3-3----x--2-2--|

e|---------------------------------------------------|
B|---------------------------------------------------|
G|---------------------------------------------------|
D|--4----x--4-4-4----x--7-7-7------------------------|
A|--4----x--4-4-4----x--7-7-7------------------------|
E|--2----x--2-2-2----x--5-5-5-----0--0--5--6--5--6---|

e|---------------------------------------------------|
B|---------------------------------------------------|
G|---------------------------------------------------|
D|--2----x--2-2-2----x--7-7-7----x--5-5-5----x--9-9--|
A|--2----x--2-2-2----x--7-7-7----x--5-5-5----x--9-9--|
E|--0----x--0-0-0----x--5-5-5----x--3-3-3----x--7-7--|

e|---------------------------------------------------|
B|---------------------------------------------------|
G|-------------------x-12-12-12--x-12-12-12----------|
D|--9----x--9-9-9----x-----------x-----------x--2-2--|
A|--9----x--9-9-9----x-10-10-10--x-10-10-10--x--2-2--|
E|--7----x--7-7-7----------------------------x--0-0--|

e|---------------------------------------------------|
B|---------------------------------------------------|
G|---------------------------------------------------|
D|--2----x--2-2-2----x--7-7-7----x--5-5-5----x--4-4--|
A|--2----x--2-2-2----x--7-7-7----x--5-5-5----x--4-4--|
E|--0----x--0-0-0----x--5-5-5----x--3-3-3----x--2-2--|

e|---------------------------------------------------|
B|---------------------------------------------------|
G|---------------------------------------------------|
D|--4------------------------------4--4--4--4--4--4--|
A|--4------------------4--4--4--4--4--4--4--4--4--4--|
E|--2------2--2--2--2--2--2--2--2--2--2--2--2--2--2--|


  (2:46) GUITAR 1: Chorus (play 2x)
e|---------------------------------------------------|
B|---------------------------------------------------|
G|--16-16-16-16-16-16-16-16-12-12-12-12-12-12-12-12--|
D|---------------------------------------------------|
A|--14-14-14-14-14-14-14-14-10-10-10-10-10-10-10-10--|
E|---------------------------------------------------|

e|---------------------------------------------------|
B|---------------------------------------------------|
G|--16-16-16-16-16-16-16-16-12-12-12-12-12-12-12-12--|
D|---------------------------------------------------|
A|--14-14-14-14-14-14-14-14-10-10-10-10-10-10-10-10--|
E|---------------------------------------------------|

e|---------------------------------------------------|
B|---------------------------------------------------|
G|--7-7-7-7-7-7-7-7----------------------------------|
D|------------------7-7-7-7-7-7-7-7------------------|
A|--5-5-5-5-5-5-5-5-----------------7-7-7-7-7-7-7-7--|
E|------------------5-5-5-5-5-5-5-5-0-0-0-0-0-0-0-0--|


  (2:46) GUITAR 2: Chorus (play 4x)
e|---------------------------------------------------|
B|--12-0--8--0--12-0--8--0--12-0--8--0--12-0--8--0---|
G|---------------------------------------------------|
D|---------------------------------------------------|
A|---------------------------------------------------|
E|---------------------------------------------------|

e|---------------------------------------------------|
B|--5--0--5--0--8--0--8--0--5--0--5--0--8--0--8--0---|
G|---------------------------------------------------|
D|---------------------------------------------------|
A|---------------------------------------------------|
E|---------------------------------------------------|


  GUITAR 1     (3:12)     GUITAR 2
e|--------|             e|--------|
B|--------|             B|---5----|
G|--------|             G|--------|
D|---2----|             D|--------|
A|---2----|             A|--------|
E|---0----|             E|--------|



************************************

| /   slide up
| \   slide down
| h   hammer-on
| p   pull-off
| ~   vibrato
| +   harmonic
| x   Mute note
| b   Bend
| pb  Pre-bend
| br  Bend release
| pbr Pre-bend release
| brb Bend release bend

************************************
Добавлено: 05.04.2012
Другие материалы по этой песне:

Страница создана 07.03.2012
http://primanota.ru/blood-red-shoes/dont-ask-chords.htm
Привет, Гость.
Предлагаем пройти революционный курс по гитаре.
Подарок от PrimaNota.Ru, забирай!