PrimaNota.ru - самый крупный в мире бесплатный архив песенных текстов, аккордов, табулатур и нот


Blood Red Shoes - Melvo - таба, видео

Регистрация Запомнить меня
Войти через:  Facebook Google Twitter Vk Yandex Mail.ru

Blood Red Shoes - Melvo - таба, видео

Печатать
Просмотров: 214
Уроки эстрадного вокала в Санкт-Петербурге
-------------------------------------------------------
                Blood Red Shoes - Melvo
-------------------------------------------------------


Tuning: EADGBe


  (0:00) Play 4x
e|-----------------------------------------------------|
B|-----------------------------------------------------|
G|------9-------5-----7--------------------------------|
D|----9-------5-----7-------7-------5-----7---------2--|
A|--7-------3-----5-------7-------5-----7-----8---2----|
E|----------------------5-------3-----5-----6---0------|


  (0:32)
e|-----------------------------------------------------|
B|-----------------------------------------------------|
G|-----------------------------------------------------|
D|--5--5--5--7-----8-----2--2-----2~-------------------| 3x
A|--5--5--5--7-----8-----2--2-----2~-------------------|
E|--3--3--3--5-----6-----0--0-----0~-------------------|

e|-----------------------|
B|-----------------------|
G|-----------------------|
D|--5--5--5--7-----8-----|
A|--5--5--5--7-----8-----|
E|--3--3--3--5-----6-----|


  (0:44) Play 4x
e|-----------------------------------------------------|
B|-----------------------------------------------------|
G|-----------------------------------------------------|
D|--5--5--5-5-5-5-5-5-5-5--7--8-8--8--8-8-8-8----------|
A|--5--5--5-5-5-5-5-5-5-5--7--8-8--8--8-8-8-8----------|
E|--3--3--3-3-3-3-3-3-3-3--5--6-6--6--6-6-6-6---2~--0--|


  (1:13)
e|-----------------------|
B|-----------------------|
G|-----------------------|
D|-----------------------|
A|-----------------------|
E|--2~-------------------|


  (1:17) Play 8x
e|-----------------------------------------------------|
B|--0--0--0--0---2--2--2--2---5--5--5--5---5--5--5--5--|
G|--0--0--0--0---0--0--0--0---4--4--4--4---4--4--4--4--|
D|-----------------------------------------------------|
A|-----------------------------------------------------|
E|-----------------------------------------------------|


  (1:44) Play 4x
e|-----------------------------------------------------|
B|-----------------------------------------------------|
G|-----------------------------------------------------|
D|--5--5--5-5-5-5-5-5-5-5--7--8-8--8--8-8-8-8----------|
A|--5--5--5-5-5-5-5-5-5-5--7--8-8--8--8-8-8-8----------|
E|--3--3--3-3-3-3-3-3-3-3--5--6-6--6--6-6-6-6---2~--0--|


  (2:12) Play 8x
e|-----------------------------------------------------|
B|-----------------------------------------------------|
G|-----------------------------------------------------|
D|-----------------------------------------------------|
A|-----------------------------------------------------|
E|--2-----0--2--0--2--3--0--/5-----5--5--5--5--3--0----|


  (2:40)
e|-----------------------|
B|-----------------------|
G|-----------------------|
D|--4--------------------|
A|--4--------------------|
E|--2--------------------|
Добавлено: 08.03.2012
Другие материалы по этой песне:
  • Аккорды и текст

Страница создана 08.03.2012
http://primanota.ru/blood-red-shoes/melvo-chords.htm
Привет, Гость.
Предлагаем пройти революционный курс по гитаре.
Подарок от PrimaNota.Ru, забирай!