PrimaNota.ru - самый крупный в мире бесплатный архив песенных текстов, аккордов, табулатур и нот


Blood Red Shoes - Light It Up - текст песни, таба, видео

Регистрация Запомнить меня
Войти через:  Facebook Google Twitter Vk Yandex Mail.ru

Blood Red Shoes - Light It Up - текст песни, таба, видео

Печатать
Просмотров: 328
Авторы музыки: Blood Red Shoes
Авторы текста: Blood Red Shoes
------------------------------------------------------
            Blood Red Shoes - Light It Up
------------------------------------------------------


Tuning: EADGBe


  (0:00) Intro (play 6x)
e|---------------------------------------------------|
B|---------------------------------------------------|
G|-----------12-12-------------------10-10-10--------|
D|--------------------12-12-------------------12-----|
A|---------------------------------------------------|
E|--11-11-11----------------10-10-10-----------------|

e|---------------------------------------------------|
B|---------------------------------------------------|
G|---------------------------------------------------|
D|-----------5--5--5-----------------5--5--5---------|
A|--------------------5--5--------------------5--5---|
E|--6--6--6-----------------6--6--6------------------|


  (0:46) Chorus (play 2x)
e|---------------------------------------------------|
B|---------------------------------------------------|
G|---------------------------------------------------|
D|--5--5--5--5--5--5--5--5--5--5--5--5-/11-11-11-11--|
A|--5--5--5--5--5--5--5--5--5--5--5--5-/11-11-11-11--|
E|--3--3--3--3--3--3--3--3--3--3--3--3-/9--9--9--9---|

e|---------------------------------------------------|
B|---------------------------------------------------|
G|---------------------------------------------------|
D|--8--8--8--8--8--8--8--8--8--8--8--8--8-\4--4--4---|
A|--8--8--8--8--8--8--8--8--8--8--8--8--8-\4--4--4---|
E|--6--6--6--6--6--6--6--6--6--6--6--6--6-\2--2--2---|


  (1:01) Intro (play 5x)
e|---------------------------------------------------|
B|---------------------------------------------------|
G|-----------12-12-------------------10-10-10--------|
D|--------------------12-12-------------------12-----|
A|---------------------------------------------------|
E|--11-11-11----------------10-10-10-----------------|

e|---------------------------------------------------|
B|---------------------------------------------------|
G|---------------------------------------------------|
D|-----------5--5--5-----------------5--5--5---------|
A|--------------------5--5--------------------5--5---|
E|--6--6--6-----------------6--6--6------------------|


  (1:43) Chorus (play 4x)
e|---------------------------------------------------|
B|---------------------------------------------------|
G|---------------------------------------------------|
D|--5--5--5--5--5--5--5--5--5--5--5--5-/11-11-11-11--|
A|--5--5--5--5--5--5--5--5--5--5--5--5-/11-11-11-11--|
E|--3--3--3--3--3--3--3--3--3--3--3--3-/9--9--9--9---|

e|---------------------------------------------------|
B|---------------------------------------------------|
G|---------------------------------------------------|
D|--8--8--8--8--8--8--8--8--8--8--8--8--8-\4--4--4---|
A|--8--8--8--8--8--8--8--8--8--8--8--8--8-\4--4--4---|
E|--6--6--6--6--6--6--6--6--6--6--6--6--6-\2--2--2---|


  (2:13) Solo (play 2x)
e|---------------------------------------------------|
B|---------------------------------------------------|
G|-----------2--2--0--0--------------2--2--0--0------|
D|---------------------------------------------------|
A|---------------------------------------------------|
E|--3--3--3--------------3--3--3--3--------------3---|

e|---------------------------------------------------|
B|---------------------------------------------------|
G|-----------5--5--0--0--------------5--5--0--0------|
D|---------------------------------------------------|
A|---------------------------------------------------|
E|--6--6--6--------------6--6--6--6--------------6---|

e|---------------------------------------------------|
B|---------------------------------------------------|
G|--------------12-12-12-12-------------10-10-10-10--|
D|---------------------------------------------------|
A|---------------------------------------------------|
E|--11-11-11-11-------------10-10-10-10--------------|

e|---------------------------------------------------|
B|--------------15----------------------15-----------|
G|--------------------15-15-------------------15-15--|
D|---------------------------------------------------|
A|---------------------------------------------------|
E|--15-15-15-15-------------15-15-15-15--------------|

e|---------------------------------------------------|
B|--------------13-13-------------------13-13--------|
G|--------------------12-12-------------------12-12--|
D|---------------------------------------------------|
A|---------------------------------------------------|
E|--13-13-13-13-------------13-13-13-13--------------|

e|---------------------------------------------------|
B|---------------------------------------------------|
G|--------------8--8--8--8--------------8--8--8--8---|
D|---------------------------------------------------|
A|---------------------------------------------------|
E|--8--8--8--8--------------8--8--8--8---------------|

e|---------------------------------------------------|
B|---------------------------------------------------|
G|---------------------------------------------------|
D|--------------5--5--5b-5b-5b-5b-5b-5b-5r-5r-5r-5r--|
A|---------------------------------------------------|
E|--6--6--6--6---------------------------------------|


  (3:06) Chorus (play 4x)
e|---------------------------------------------------|
B|---------------------------------------------------|
G|---------------------------------------------------|
D|--5--5--5--5--5--5--5--5--5--5--5--5-/11-11-11-11--|
A|--5--5--5--5--5--5--5--5--5--5--5--5-/11-11-11-11--|
E|--3--3--3--3--3--3--3--3--3--3--3--3-/9--9--9--9---|

e|---------------------------------------------------|
B|---------------------------------------------------|
G|---------------------------------------------------|
D|--8--8--8--8--8--8--8--8--8--8--8--8--8-\4--4--4---|
A|--8--8--8--8--8--8--8--8--8--8--8--8--8-\4--4--4---|
E|--6--6--6--6--6--6--6--6--6--6--6--6--6-\2--2--2---|


  (3:36) Outro
e|---------------------------------------------------|
B|---------------------------------------------------|
G|-----------12-12-------------------10-10-10--------|
D|--------------------12-12-------------------12-----|
A|---------------------------------------------------|
E|--11-11-11-------11-------10-10-10-----------------|

e|---------------------------------------------------|
B|---------------------------------------------------|
G|-----------12-12-15-15-------------10-10-----------|
D|--------------------------------------------12-----|
A|---------------------------------------------------|
E|--11-11-11----------------10-10-10-----------------|

e|---------------------------------------------------|
B|---------------------------------------------------|
G|-----------12-12-15-15-------------10-10-10--------|
D|--------------------------------------------12-12--|
A|---------------------------------------------------|
E|--11-11-11----------------10-10-10-----------------|

e|---------------------------------------------------|
B|---------------------------------------------------|
G|-----------10-10-10--------------------------------|
D|--------------------12-12----------10-10-10--------|
A|--------------------------------------------12-----|
E|--10-10-10----------------10-10-10-------------0---|

e|---------------------------------------------------|
B|---------------------------------------------------|
G|---------------------------------------------------|
D|---------------------------------------------------|
A|---------------------------------------------------|
E|--6~-----------------------------------------------|



************************************

| /   slide up
| \   slide down
| h   hammer-on
| p   pull-off
| ~   vibrato
| +   harmonic
| x   Mute note
| b   Bend
| pb  Pre-bend
| br  Bend release
| pbr Pre-bend release
| brb Bend release bend

************************************
Добавлено: 31.05.2012
Другие материалы по этой песне:

Страница создана 31.05.2012
http://primanota.ru/blood-red-shoes/light-it-up-chords.htm
Привет, Гость.
Предлагаем пройти революционный курс по гитаре.
Подарок от PrimaNota.Ru, забирай!