PrimaNota.ru - самый крупный в мире бесплатный архив песенных текстов, аккордов, табулатур и нот


Blood Red Shoes - Stitch Me Back - таба, видео

Регистрация Запомнить меня
Войти через:  Facebook Google Twitter Vk Yandex Mail.ru

Blood Red Shoes - Stitch Me Back - таба, видео

Печатать
Просмотров: 153
STITCH ME BACK
"stitch me back\meet me at eight 7""

difficulty: novice
standard tuning

VERSE (6x)
e|---------------------------------------------------------|
B|---------------------------------------------------------|
G|---------------------------------------------------------|
D|-7-7--7-7--7-7--7-7--7-7-7---7-7--7-7--7-7--7-7--7-7-7---|
A|-7-7--7-7--7-7--7-7--7-7-7---7-7--7-7--7-7--7-7--7-7-7---|
E|-5-5--5-5--5-5--5-5--5-5-5---5-5--5-5--5-5--5-5--5-5-5-5-|

e|---------------------------------|
B|---------------------------------|
G|---------------------------------|
D|---------------------------------| 2X
A|---------------------------------|
E|-4-4-4-5-5-5-4-4-4-0-0-0-4-4-0-0-|
        
BRIDGE (2x)
e|---------------------------------------------------------------------------------|
B|---------------------------------------------------------------------------------|
G|---------------------------------------------------------------------------------|
D|---------------------------------------------------------------------------------|
A|---------------------------------------------------------------------------------|
E|-6-6--9-8-7-6-6--9-8-7-6-6--9-8-7-6-6--9-9\3-3--6-6\3-3--6-6\3-3--6-6\3-3--6-6\3-|

INTERLUDE
e|-----------------------------------------------------|
B|-----------------------------------------------------|
G|-----------------------------------------------------|
D|-----------------------------------------------------|
A|-----------------------------------------------------|
E|-4^-4^-4^-4^-4^-4^-4^-4^-4^-4^-4^-4^-4^-4^-4^-4^-4^~-|

VERSE (4x)

OUTRO (4x)
e|--------------------------------------|
B|--------------------------------------|
G|--------------------------------------|
D|--------------------------------------|
A|--------------------------------------|
E|-0--4---4--0--3---3--0--2---2---2---2-|
Добавлено: 21.04.2012
Другие материалы по этой песне:
  • Аккорды и текст

Страница создана 21.04.2012
http://primanota.ru/blood-red-shoes/stitch-me-back-chords.htm
Привет, Гость.
Предлагаем пройти революционный курс по гитаре.
Подарок от PrimaNota.Ru, забирай!