PrimaNota.ru - самый крупный в мире бесплатный архив песенных текстов, аккордов, табулатур и нот


Blood Red Shoes - Dont Get Caught - таба, видео

Регистрация Запомнить меня
Войти через:  Facebook Google Twitter Vk Yandex Mail.ru

Blood Red Shoes - Dont Get Caught - таба, видео

Печатать
Просмотров: 77
Авторы музыки: Blood Red Shoes
Авторы текста: Blood Red Shoes
don't get caught


tabbed by plasticman


intro x2
verse x4                               
e|----------------------------------|
B|----------------------------------|
G|----------------------------------|
D|----------------------------------|
A|--5-5-5-3-5-6---6-----------------|
D|------------------5-5-5-3-5-3--0--|


chorus                                                     
e|-------------------------------------------------------|
B|-------------------------------------------------------|
G|--777777777777-444444444444----------------------------|
D|--777777777777-444444444444-3/5/88888/7/5/3333333------|
A|--555555555555-222222222222-3/5/88888/7/5/3333333------|
D|----------------------------3/5/88888/7/5/3333333------|
                                                          
e|-------------------------------------------------------|
B|-------------------------------------------------------|
G|--777777777777-444444444444---------------8888888------|
D|--777777777777-444444444444-3/5/88888/7/5/8888888------|
A|--555555555555-222222222222-3/5/88888/7/5/6666666------|
D|----------------------------3/5/88888/7/5/-------------|


verse x4
           
after 2 verse  
e|-----------|
B|-----------|
G|--7-5-3-5/7|
D|-----------|
A|-----------|
D|-----------|


part1               
e|-----------------|
B|-----------------|
G|-----------------|
D|-3-5-3-0-2-0-----|
A|-------------3---|
D|-----------------|

chorus


bridge 
                               
e|------------------------------------|
B|------------------------------------|
G|------------------------------------|
D|------------------------------------|x4
A|-56565656/23232323------------------|
D|------------------55555566633333000-|

e|-------------------------------------------------------|
B|-------------------------------------------------------|
G|-------------------------------------------------------|
D|----------------------------3/5/88888/7/5/3333333------|
A|--555555555555-222222222222-3/5/88888/7/5/3333333------|
D|----------------------------3/5/88888/7/5/3333333------|
 clean....................... distortion

chorus
intro x4
part1
Добавлено: 05.11.2014
Другие материалы по этой песне:
  • Аккорды и текст

Страница создана 05.11.2014
http://primanota.ru/blood-red-shoes/dont-get-caught-chords.htm
Привет, Гость.
Предлагаем пройти революционный курс по гитаре.
Подарок от PrimaNota.Ru, забирай!