PrimaNota.ru - самый крупный в мире бесплатный архив песенных текстов, аккордов, табулатур и нот


Blood Red Shoes - Tightwire - таба, видео

Регистрация Запомнить меня
Войти через:  Facebook Google Twitter Vk Yandex Mail.ru

Blood Red Shoes - Tightwire - таба, видео

Печатать
Просмотров: 68
Авторы музыки: Blood Red Shoes
Авторы текста: Blood Red Shoes
Blood red shoes - Tightwire

Verse 1

e|-----------------|
B|-----------------|
G|-----------------|
D|-10---5----7----2|     (4x)
A|-10---5----7----2|
E|-8----3----5----0|

Chorus
Accords: C G A Em (2x)
Post-chorus:
e|-0000000-7777777-0000000-7777777-12-12-12--|
B|-------------------------------------------|
G|-------------------------------------------|
D|-------------------------------------------|
A|-------------------------------------------|
E|-------------------------------------------|

Verse 2
e|-----------------|
B|-----------------|
G|-----------------|
D|-10---5----7----2|     (4x)
A|-10---5----7----2|
E|-8----3----5----0|

Pre-chorus:
e|-----------------------------------------------------------------------|
B|-----------------------------------------------------------------------|
G|-2-2-2-2-2-2-2-2-2/4-4-4-4-4-4-4-4/10-10-10-10-10-10-10/9-9-9-9-9-9-9--|
D|-----------------------------------------------------------------------|
A|-----------------------------------------------------------------------|
E|-----------------------------------------------------------------------|

e|---------------------------------------------------------------------------------------------|
B|---------------------------------------------------------------------------------------------|
G|-2-2-2-2-2-2-2-2-2/4-4-4-4-4-4-4-4/10-10-10-10-10-10-10/9-9-9-9-9-9-9-9/7-7-7-7-7-7-7-7-7----|
D|---------------------------------------------------------------------------------------------|
A|---------------------------------------------------------------------------------------------|
E|---------------------------------------------------------------------------------------------|

Chorus
Accords: C G A Em (2x)
Добавлено: 01.10.2015
Другие материалы по этой песне:
  • Аккорды и текст

Страница создана 01.10.2015
http://primanota.ru/blood-red-shoes/tightwire-chords.htm
Привет, Гость.
Предлагаем пройти революционный курс по гитаре.
Подарок от PrimaNota.Ru, забирай!