PrimaNota.ru - самый крупный в мире бесплатный архив песенных текстов, аккордов, табулатур и нот


Blood Red Shoes - Grey Smoke - таба, видео

Регистрация Запомнить меня
Войти через:  Facebook Google Twitter Vk Yandex Mail.ru

Blood Red Shoes - Grey Smoke - таба, видео

Печатать
Просмотров: 72
Авторы музыки: Blood Red Shoes
Авторы текста: Blood Red Shoes
Blood Red Shoes - Grey Smoke

Verse:
e|----------------------------------------------|
B|----------------------------------------------|
G|----------------------------------------------|
D|----------------------------------------------|
A|----------------------------------------------|
E|-15---12--12-10-12-12-0-15---12--12-10-12-12-0|


e|---------------------------------------------|
B|---------------------------------------------|
G|---------------------------------------------|
D|---------------------------------------------|       (x3)
A|------------------------15--15-15--12--12-12-|
E|-15---12--12-10-12-12-0----------------------|

e|----------------------------------------------|
B|----------------------------------------------|
G|----------------------------------------------|
D|----------------------------------------------|
A|----------------------------------------------|
E|-15---12--12-10-12-12-0-15---12--12-10-12-12-0|


e|---------------------------------------------|
B|---------------------------------------------|
G|---------------------------------------------|
D|---------------------------------------------|
A|------------------------15--15-15--16--16-16-|
E|-15---12--12-10-12-12-0----------------------|

Chorus:
e|-------------------------------------------------------------|
B|-------------------------------------------------------------|
G|-------------------------------------------------------------|
D|-------------------------------------------------------------|
A|-77777777773333333366666-777777777777777770000000233333333---|
E|-------------------------------------------------------------|

e|--------------------------------------------|
B|--------------------------------------------|
G|--------------------------------------------|
D|--------------------------------------------|
A|-777777777222222222227777777777722222222222-|
E|--------------------------------------------|
 
Verse:
e|----------------------------------------------|
B|----------------------------------------------|
G|----------------------------------------------|
D|----------------------------------------------|
A|----------------------------------------------|
E|-15---12--12-10-12-12-0-15---12--12-10-12-12-0|


e|---------------------------------------------|
B|---------------------------------------------|
G|---------------------------------------------|
D|---------------------------------------------|       (x3)
A|------------------------15--15-15--12--12-12-|
E|-15---12--12-10-12-12-0----------------------|

e|----------------------------------------------|
B|----------------------------------------------|
G|----------------------------------------------|
D|----------------------------------------------|
A|----------------------------------------------|
E|-15---12--12-10-12-12-0-15---12--12-10-12-12-0|


e|---------------------------------------------|
B|---------------------------------------------|
G|---------------------------------------------|
D|---------------------------------------------|
A|------------------------15--15-15--16--16-16-|
E|-15---12--12-10-12-12-0----------------------|

Chorus:
e|-------------------------------------------------------------|
B|-------------------------------------------------------------|
G|-------------------------------------------------------------|
D|-------------------------------------------------------------|
A|-77777777773333333366666-777777777777777770000000233333333---|
E|-------------------------------------------------------------|

e|--------------------------------------------|
B|--------------------------------------------|
G|--------------------------------------------|
D|--------------------------------------------|
A|-777777777222222222227777777777722222222222-|
E|--------------------------------------------|
 

1st guitar:
e|-12--12--12--12-14-10--10--10--10-12-8-8-8-8-10-7-7-7-7-8-|
B|---12--12--12--------10--10--10-------8-8-8------7-7-7----|
G|----------------------------------------------------------|
D|----------------------------------------------------------| (x4)
A|----------------------------------------------------------|
E|----------------------------------------------------------|
2nd guitar:
e|----------------------------------------------------------|
B|----------------------------------------------------------|
G|----------------------------------------------------------|
D|----------------------------------------------------------|
A|----------------------------------------------------------|
E|0000000000000000000000000000000000000000000000000000000000|

e|----------------------------------------------------------|
B|----------------------------------------------------------|
G|----------------------------------------------------------|
D|----------------------------------------------------------|  (x3)
A|----------------------------------------------------------|
E|0000000000000333333333333335555555555555557777777777777777|

1st guitar:
e|----------------------------------------------|
B|----------------------------------------------|
G|----------------------------------------------|
D|----------------------------------------------|
A|----------------------------------------------|
E|-15---12--12-10-12-12-0-15---12--12-10-12-12-0|


e|---------------------------------------------|
B|---------------------------------------------|
G|---------------------------------------------|
D|---------------------------------------------|
A|------------------------15--15-15--12--12-12-|
E|-15---12--12-10-12-12-0----------------------|

e|----------------------------------------------|
B|----------------------------------------------|
G|----------------------------------------------|
D|----------------------------------------------|
A|----------------------------------------------|
E|-15---12--12-10-12-12-0-15---12--12-10-12-12-0|


e|---------------------------------------------|
B|---------------------------------------------|
G|---------------------------------------------|
D|---------------------------------------------|
A|------------------------15-15-15-15-17-17-17-|
E|-15---12--12-10-12-12-0----------------------|

I don't  know how she plays this fantastic solo. But first part (02:26-02:35) like this:
e|------10^10^----------------------------------|
B|-------------11^11^11^11^-5757575778888-------|
G|---------------------------------------6666---|
D|----------------------------------------------|
A|----------------------------------------------|
E|----------------------------------------------|


Chorus:
e|-------------------------------------------------------------|
B|-------------------------------------------------------------|
G|-------------------------------------------------------------|
D|-------------------------------------------------------------|
A|-77777777773333333366666-777777777777777770000000233333333---|
E|-------------------------------------------------------------|

e|--------------------------------------------|
B|--------------------------------------------|
G|--------------------------------------------|
D|--------------------------------------------|
A|-777777777222222222227777777777722222222222-|
E|--------------------------------------------|
 
Добавлено: 01.10.2015
Вам также может быть интересно:
Другие материалы по этой песне:
  • Аккорды и текст

Страница создана 01.10.2015
http://primanota.ru/blood-red-shoes/grey-smoke-chords.htm
Привет, Гость.
Предлагаем пройти революционный курс по гитаре.
Подарок от PrimaNota.Ru, забирай!