PrimaNota.ru - самый крупный в мире бесплатный архив песенных текстов, аккордов, табулатур и нот


Black Keys - So He Wont Break - таба, бас-таба, видео

Регистрация Запомнить меня
Войти через:  Facebook Google Twitter Vk Yandex Mail.ru

Black Keys - So He Wont Break - таба, бас-таба, видео

Печатать
Просмотров: 368
-------------------------------------------------------------------------------
                             So He Won't Break - The Black Keys
-------------------------------------------------------------------------------
Tabbed by: lusion01
Email: illu[dot]215[at]gmail[dot][com]

Tuning: Standard

Just the solo. I have tried and transcribed the whole song myself, and I think the 
others have got it. 
The only issue I have with is the one part in from 0:21-0:30 (which is then 
repeated throughout the song). 
I had the secondary barre chords Em and Dm to finish the single notes. Otherwise I 
see no other point than to attempt the solo!

(2:24-2:32)

e|---12-12-12-12----10-------8--8--8--8--8---8---------------------|
B|---10-10-10-10----10-------10-10-10-10-10--10--------------------|
G|-----------------------------------------------------------------|
D|-----------------------------------------------------------------|
A|-----------------------------------------------------------------|
E|-----------------------------------------------------------------|

(2:33-2:42)

e|--8----12-12-12-13--10------12----8-7-----------------------------|
B|--10---10-10-10-10--10------10--------10-8------------------------|
G|--------------------------------------------10-9------------------|
D|------------------------------------------------------------------|
E|------------------------------------------------------------------|

(2:42-2:51)

e|-----------7-8---------8---7------------------8-7--------7---------|
B|--10--8-10-------------10---------10-----10---------8--------10----|
G|----------------10--------------------9----------------9-----------|
D|-------------------------------------------------------------------|
A|-------------------------------------------------------------------|
E|-------------------------------------------------------------------|

(2:52-2:58)

e|------------------8-10-----8-10-10------8--10b12-10----8-7---------|
B|----10---10-8-10--------10-----------10----------------------10----|
G|--9-------9-9-9----------------------------------------------------|
D|-------------------------------------------------------------------|
A|-------------------------------------------------------------------|
E|-------------------------------------------------------------------|

(2:58-3:01)

e|--7b9--5-----------------------------------------------------------|
B|----------8-6-5----------------------------------------------------|
G|----------------7-5-4----------------------------------------------|
D|------------------------7------------------------------------------|
A|-------------------------------------------------------------------|
E|-------------------------------------------------------------------|

Probably not exact, but the closest that I can get. I'm not too sure about
(2:42-2:51)and(2:52-2:58), 
where some lines have two notes played at the same time. Not sure if it was just 
another guitar in the background. 
But otherwise I think I did okay! Enjoy!

************************************

| /   slide up
| \   slide down
| h   hammer-on
| p   pull-off
| ~   vibrato
| +   harmonic
| x   Mute note
| b   Bend
| pb  Pre-bend
| br  Bend release
| pbr Pre-bend release
| brb Bend release bend

************************************
Добавлено: 11.03.2012
Другие материалы по этой песне:

Страница создана 11.03.2012
http://primanota.ru/black-keys/so-he-wont-break-chords.htm
Привет, Гость.
Предлагаем пройти революционный курс по гитаре.
Подарок от PrimaNota.Ru, забирай!