PrimaNota.ru - самый крупный в мире бесплатный архив песенных текстов, аккордов, табулатур и нот


Black Keys - Stack Shot Billy - текст песни, таба, видео

Регистрация Запомнить меня
Войти через:  Facebook Google Twitter Vk Yandex Mail.ru

Black Keys - Stack Shot Billy - текст песни, таба, видео

Печатать
Просмотров: 699
b bend
h hammer-on
p pull-off
/ slide up
\ slide down
() let ring
v vibrato

e|-----------------------------------|
b|-7---7p5---5h7/10---7p5------------|
g|-5---5-----5--------5----7-5-------|
d|-----------------------------7-----|
a|-----------------------------------|
e|-----------------------------------|


e|-------------------------------------------------------|
b|------------------------------5-------5---7-(7)-10v----|
g|---------------5-------5----7---7-5h7--------9-(9)-----|
d|-----------5h7---7-5h7---------------------------------|
a|-------3h5---------------------------------------------|
e|-5-3h5-------------------------------------------------|


e|------------------------------------------------------------------------|
b|-7---7--8b-8\5----5h7--5------------------------------------------------|
g|---9----------------------7-5b--5----------------5b---------------------|
d|----------------------------------7-----5h7----5------5-----------------|
a|-------------------------------------7-------7-----------0-------0------|
e|----------------------------------------------------3----------3----3---|
Добавлено: 16.05.2012
Другие материалы по этой песне:

Страница создана 06.04.2012
http://primanota.ru/black-keys/stack-shot-billy-chords.htm
Привет, Гость.
Предлагаем пройти революционный курс по гитаре.
Подарок от PrimaNota.Ru, забирай!