PrimaNota.ru - самый крупный в мире бесплатный архив песенных текстов, аккордов, табулатур и нот


Black Keys - Till I Get My Way - текст песни, таба, видео

Регистрация Запомнить меня
Войти через:  Facebook Google Twitter Vk Yandex Mail.ru

Black Keys - Till I Get My Way - текст песни, таба, видео

Печатать
Просмотров: 420
Till I Get My Way (Black Keys)
h - hammer on 
p - pull off 
b - bend string up
r - release bend
/ - slide up
\ - slide down
v - vibrato (sometimes written as ~)
t - right hand tap
x - play 'note' with heavy damping

You can play this song in a number of positions but this one seems to flow the best for me.

Intro

e----------------------------------------------|
b----------------------------------------------|
g----------------------------------------------|
d----------------------------------------------|
a--7\9-9-9-9-9-9-9-9—7b(down)------------------|
e----------------------------------------------|

Verse

Play 8x

d----------------------------------------------|
b----------------------------------------------|
g----------------------------------------------|
d----------------------------------------------|
a--7--7\9--7--2-2-0-4-2-0----------------------|
e--5-------------------------------------------|

chorus

e----------------------------------------------|
b----------------------------------------------|
g----------------------------------------------|
d--666-----999---------------------------------|
a--444-----777------9--9999--------------------|
e-------------------7--7777--------------------|

callin' on you everyday till I get my…

Verse

Play 6x

d----------------------------------------------|
b----------------------------------------------|
g----------------------------------------------|
d----------------------------------------------|
a--7--7\9--7--2-2-0-4-2-0----------------------|
e--5-------------------------------------------|

…way

chorus

e----------------------------------------------|
b----------------------------------------------|
g----------------------------------------------|
d--666-----999---------------------------------|
a--444-----777------9--9999--------------------|
e-------------------7--7777--------------------|

callin' on you everyday till I get my…

Verse

Play 2x

d----------------------------------------------|
b----------------------------------------------|
g----------------------------------------------|
d----------------------------------------------|
a--7--7\9--7--2-2-0-4-2-0----------------------|
e--5-------------------------------------------|

…way

Solo

d----------------------------------------------|
b------2---5-2------------2—-2--2--------------|
g------4b------4-2--------4b-4b-4b-2-----------|
d------------------4y--------------------------|
a--44------------------44----------------------|
e--22------------------22----------------------|

d-----------2----------------------------------|
b------2-5h---------------2—-2--2--------------|
g-------------4-2---------4b-4b-4b-2-----------|
d-----------------4y---------------------------|
a--44-----------------44-----------------------|
e--22-----------------22-----------------------|

Verse

Play 8x

d----------------------------------------------|
b----------------------------------------------|
g----------------------------------------------|
d----------------------------------------------|
a--7--7\9--7--2-2-0-4-2-0----------------------|
e--5-------------------------------------------|

chorus

e----------------------------------------------|
b----------------------------------------------|
g----------------------------------------------|
d--666-----999---------------------------------|
a--444-----777------9--9999--------------------|
e-------------------7--7777--------------------|

callin' on you everyday till I get my…

Verse

Play 4x

d----------------------------------------------|
b----------------------------------------------|
g----------------------------------------------|
d----------------------------------------------|
a--7--7\9--7--2-2-0-4-2-0----------------------|
e--5-------------------------------------------|

…way

Outro

e----------------------------------------------|
b----------------------------------------------|
g----------------------------------------------|
d----------------------------------------------|
a--9-7\9-9-9-9-9-9-9-9—7b(down)--4-------------|
e--7-----------------------------2-------------|

Добавлено: 23.06.2012
Другие материалы по этой песне:

Страница создана 31.03.2012
http://primanota.ru/black-keys/till-i-get-my-way-chords.htm
Привет, Гость.
Предлагаем пройти революционный курс по гитаре.
Подарок от PrimaNota.Ru, забирай!