PrimaNota.ru - самый крупный в мире бесплатный архив песенных текстов, аккордов, табулатур и нот


Black Keys - I Got Mine - аккорды и текст, таба, бас-таба, видео

Регистрация Запомнить меня
Войти через:  Facebook Google Twitter Vk Yandex Mail.ru

Black Keys - I Got Mine - аккорды и текст, таба, бас-таба, видео

Печатать
Просмотров: 2769
I Got Mine
Black Keys
The Black Keys
 
I Got Mine (live on Letterman) 



Key

 b : Bend 
 r : Release
 / : Slide into
  : Slide out of
 h : Hammer on
 p : Pull off
(-): Ghost note
 v : Vibrato
 x : Mute
 u : Up stroke
 d : Down stroke

_____________________________________________________________________________

Intro/Outro

 
e|7v-----7--6--5v-----5--4--3v-----2v-----1v----|
B|7v-----7--6--5v-----5--4--3v-----2v-----1v----|
G|8v-----8--7--6v-----6--5--4v-----3v-----2v----|
D|9v-----9--8--7v-----7--6--5v-----4v-----3v----|
A|9v-----9--8--7v-----7--6--5v-----4v-----3v----|
E|7v-----7--6--5v-----5--4--3v-----2v-----1v----|

_____________________________________________________________________________

Verse


e|-----------------------------------|-------------------------------|
B|-----------------------------------|-------------------------------|
G|-----------------------------------|-------------------------------|
D|----------------------5h7---5------|-------------------------------|
A|----7-5-7v------7-5-7---------7-7--|---7-5-7v------7-5-75---------|
E|0-----------0----------------------|0----------0-----------3-5-3b--|


Variation I


e|-----------------------------------|-------------------------------|
B|-----------------------------------|-------------------------------|
G|-----------------------------------|-------------------------------|
D|----------------------5h7---5------|----------------------(0)-75--|
A|----7-5-7v------7-5-7---------7-7--|---7-5-7v------7-5-7--(0)-x----|
E|0-----------0----------------------|0----------0--------------53--|
                                                             u  d 

Variation II


e|-----------------------------------|--------------------------------------|
B|-----------------------------------|--------------------------------------|
G|-----------------------------------|--------------------------------------|
D|----------------------5h7---5------|-----------------------(0)------------|
A|----7-5-7v------7-5-7---------7-7--|---7-5-7v------7-5-7---(0)-------0-0--|
E|0-----------0----------------------|0----------0---------------17--------|
                                                              u  d 
_____________________________________________________________________________

Chorus

                
e|-------------------------3-------|
B|-------------0-0-----2---2-------|
G|----1--------0-0-----2---2-------|
D|----2--------0-0-----2-----------|
A|----2------------0------------0--|
E|0-------3b-----------------------|
  d   d   d    d u d   d   u    d       
 
Variation 

         
e|-------------------------3b------|
B|-------------0-------2-----------|
G|----1--------0-------2-----------|
D|----2--------0-------2-----------|
A|----2------------0---------------|
E|0-------3b-----------------------|
  d   d   d    d   d   d   u    
                      
_____________________________________________________________________________

Solo 


e|-------------------------------|------------------------------------|
B|-------------------------------|------------------------------------|
G|-------------------------------|------------------------------------|
D|----0h2---0--------------0-----|----------------------0h2-0---------|
A|------------2-1-0----0h2-------|------------------0h2-------2-0-----|
E|0-----------------3b-------3b--|0---0-0-3b-0-3b-----------------3b--|


                                           
e|---------------------------|---------------------------------|
B|---------------------------|---------------------------------|
G|---------------------------|0--------------------------------|
D|-----------0h2---2v-2v-2v--|--2v--0--------------------------|
A|-------0h2-----------------|--------2v--0------0-1-2-0-------|
E|0--------------------------|--------------3b-----------3b-0--|



e|-------0v--0v----0v------|---------------------------------|
B|-------0v--0v----0v------|------12v12v12v12v12v------------|
G|1------1v--2v----4v--4v--|------13v13v13v13v13v----1-x-----|
D|2v-----2v--3v----5v--5v--|2------------------------2-x-----|
A|2v-----2v--3v----5v--5v--|2------------------------2-x-----|
E|0v-------------------0v--|0----------------------------3b--|
                                                     

                             
e|-----------------------------------|--------------------------------------|
B|------10v10v10v10v10v--------------|------12-12-12-12/15-15-15v-----------|
G|1-----11v11v11v11v11v-------x------|1-----13-13-13-13/16----16v----1------|
D|2---------------------------x------|2------------------------------2------|
A|2---------------------------x------|2------------------------------2------|
E|0---------------------------x--3b--|0---------------------------------3b--|
                             Rake                        

                       
e|---------------------------------------------|------0v--0v----0v----0------|
B|-----12-12-12-10/12--12------12v-------------|------0v--0v----0v-----0-----|
G|1----13-13-13-11/13-b13(14)b(14)v---x-1------|------1v--2v----4v------4----|
D|2-----------------------------------x-2------|2v----2v--3v----5v-------5---|
A|2-----------------------------------x-2------|2v----2v--3v----5v--------5--|
E|0---------------------------------------3p0--|0v---------------------------|
                                                                      sweep
 
                                                           
e|-----0-----0-0-0---0-0------------|-----0-----0-0-0---3-5-3b---0--|
B|----/5-----5-5-5---3-0-0-----0----|----/5-----5-5-5---------------|
G|1)---------------------2/4---0----|1------------------------------|
D|2)-----------------------------0--|2------------------------------|
A|2)--------------------------------|2------------------------------|
E|0---------------------------------|0------------------------------|
  d    u     u u u   u u d     u d   d    u     u u u   u u u    u 

                                         
e|------0-----0-0-0---0-0------------|---------------------------|
B|-----/5-----5-5-5---3-0-0-----0----|---------------------------|
G|1-----------------------2/4---0----|1--------------------------|
D|2-------------------------------0--|2--------------------------|
A|2----------------------------------|2---0------x--1--2-0-------|
E|0----------------------------------|0-----3b-------------3b-0--|
  d     u     u u u   u u d     u d   


e|0v--------------|0v--------------|
B|0v--------------|0v--------------|
G|1v-----------0--|1v-----------0--|
D|2v-----------0--|2v-----------0--|
A|2v-----------0--|2v-----------0--|
E|0v--------------|0v--------------|
With feedback               (etc...)

_____________________________________________________________________________

End


e|0---------------|
B|0---------------|
G|1---------------|
D|2---------------|
A|2---------------|
E|0---------------|
Добавлено: 12.01.2014
Другие материалы по этой песне:

Страница создана 04.03.2012
http://primanota.ru/black-keys/i-got-mine-chords.htm
Привет, Гость.
Предлагаем пройти революционный курс по гитаре.
Подарок от PrimaNota.Ru, забирай!