PrimaNota.ru - самый крупный в мире бесплатный архив песенных текстов, аккордов, табулатур и нот


Black Keys - Strange Times - текст песни, таба, бас-таба, видео

Регистрация Запомнить меня
Войти через:  Facebook Google Twitter Vk Yandex Mail.ru

Black Keys - Strange Times - текст песни, таба, бас-таба, видео

Печатать
Просмотров: 650
Strange Times by Black Keys
from the album Attack and Release

Intro
e--------------------------------------|
B--------------------------------------|
G--------------------------------------|   Play 
D-------------------------------4-3-2--|   This
A------4-6----------4------------------|   Twice
E--4-6-----4-6--6-4---6-4-2-2-2--------|

Verse
e-----------------------------|
B-----------------------------|
G-----------------------------|   Play This 
D-----------------------------|   Four Times
A-----------------------------| 
E--4-6-4-6-4-6--0-2-0-2-0-2---|

Chorus
e--------------------------------------------|
B--------------------------------------------|
G--------------------------------------------|
D-8-8-8-8--11-11-11-11-4-4-4-4-4-4-4-4-------|
A-8-8-8-8--11-11-11-11-4-4-4-4-4-4-4-4-------|
E-6-6-6-6--9--9--9--9--2-2-2-2-2-2-2-2-------|                    

Repeat 3 riffs above until 2 minutes 40.

Outro
e--------------------------------------|
B--------------------------------------|
G--------------------------------------|   Play 
D------------------------------4-3-2---|   This
A------4-6----------4------------------|   Four
E--4-6-----4-6--6-4---6-4-2-2-2--------|   Times

Then end on
e--------|
B--------|
G--------|   
D--------|   
A--------|   
E--4-6---|

Any corrections - comment
Thanks.
Добавлено: 14.04.2012
Другие материалы по этой песне:

Страница создана 13.03.2012
http://primanota.ru/black-keys/strange-times-chords.htm
Привет, Гость.
Предлагаем пройти революционный курс по гитаре.
Подарок от PrimaNota.Ru, забирай!