PrimaNota.ru - самый крупный в мире бесплатный архив песенных текстов, аккордов, табулатур и нот


Black Keys - Juniors Instrumental - аккорды и текст, таба, видео

Регистрация Запомнить меня
Войти через:  Facebook Google Twitter Vk Yandex Mail.ru

Black Keys - Juniors Instrumental - аккорды и текст, таба, видео

Печатать
Просмотров: 250
Уроки эстрадного вокала в Санкт-Петербурге
Juniors Instrumental
Black Keys
This is off Chulahoma.  It sounds right to me, mostly.  I think the last 20 or so 
are pretty sketchy, so any corrections are welcome.  R1 just denotes where to play the main 
and / means slide, etc.  Enjoy.
 
E --------------------------------------------------------------------------|
B --------------------------------------------------------------------------|
G -------7----(7h9-7/4-4-------------7------------------------------------7-|
D -7-7-5---7-------------7/5-7-5-7/9---9/5------------7-5-7-7-5-7-7-5-7/9---|
A -----------------------------------------7)=(R1) x2-----------------------|
E --------------------------------------------------------------------------|

E --------------------------------------------------------------------------|
B --------------------------------------------------------------------------|
G ---------------------7------------------------5--------------7------------|
D -9p7/5---7-5-7-7-5-7?--7-5h7p5---(R1)-7-5-7/9---(R1)-7-5-7/9---9/5---7-5-7|
A -------5-----------------------7-----------------------------------7------|
E --------------------------------------------------------------------------|

E --------------------------------------------------------------------------|
B --------------------------------------------------------------------------|
G ---------------7-----------------------7----------------------7b----------|
D -7-5-7-7-5-7/9---9-7?5-7-7-5-7-7-5-7/9---9/7p5---(R1)-7-5-7/9----9/5--(R1)|
A -----------------------------------------------7---------------------7----|
E --------------------------------------------------------------------------|

E --------------------------------------------------------------------------|
B --------------------------------------------------------------------------|
G -----------------------9/7/9-------------5/7------------------------------|
D -7-5-7/9/7-7-5-7-7-5?7-------9/7/5-7-5-7-----9-5h7p5---(R1)-7-5/7/9-(R1)--|
A -----------------------------------------------------7--------------------|
E --------------------------------------------------------------------------|

E --------------------------------------------------------------------------|
B --------------------------------------------------------------------------|
G -----------------7---------------------7----------------------------7-----|
D -7-5-7-9-7-5---5---9?7-5---5-9-7-5---5---9-7-5---5h7p5-(R1)-7-5-7/9---9/5-|
A -------------7-----------7---------7-----------7--------------------------|
E --------------------------------------------------------------------------|

E --------------------------------------------------------------------------|
B ----------------3h5-8-5-10-8-5h8p5-5--------------------------------------|
G ------------7------------------------7-------------------7---------7------|
D ---(R1)-5/9---9-----?------------------9-5h7p5-------5-7---9-7-5-7---9-7-5|
A -7---------------------------------------------7-5h7----------------------|
E --------------------------------------------------------------------------|

E --------------------------------------------------------------------------|
B -----3-3-5-3-0---------------------------------------------------10--10---|
G --------------------------------------7--------------------7------------9-|
D ---5-----------5h7p5?----(R1)-7-5-7/9---9/5---(R1)-7-5-7/9---7------------|
A -7-------------------7----------------------7------------------9----------|
E -----------------------0--------------------------------------------------|

E --------------------------------------------------------------------------|
B --------------------------------------------------------------------------|
G -7-------7----------------------------------------------------------------|
D ---9-5h7---9-5h7p5--?7-5--------------------------------------------------|
A -----5h7-----------7-----7-7-5--------------------------------------------|
Добавлено: 18.03.2014
Другие материалы по этой песне:
  • Аккорды и текст

Страница создана 14.06.2012
http://primanota.ru/black-keys/juniors-instrumental-chords.htm
Привет, Гость.
Предлагаем пройти революционный курс по гитаре.
Подарок от PrimaNota.Ru, забирай!