PrimaNota.ru - самый крупный в мире бесплатный архив песенных текстов, аккордов, табулатур и нот


Black Keys - Ill Be Your Man - аккорды и текст, таба, видео

Регистрация Запомнить меня
Войти через:  Facebook Google Twitter Vk Yandex Mail.ru

Black Keys - Ill Be Your Man - аккорды и текст, таба, видео

Печатать
Просмотров: 440
Ill Be Your Man
Black Keys
Tapped by .-'?'-.Max.-'?'-. (Soul Project)
 
Intro:

e|--------------------------------------------------------|
H|-----10--------12--------14-----14-12-------------------|
G|-7s9-------7s9-------7s9--------------9-11p11-9---------|
D|--------------------------------------------------------|
A|--------------------------------------------------------|
E|--------------------------------------------------------|

Main Part:

e|-------------------------|       |------------------------------|     
H|-------------------------|       |------------------------------|
G|-------------------------|       |--7-7---9-9-9-9---------------|
D|-7-7---4-4-4-4-----------|
Добавлено: 29.04.2014
Другие материалы по этой песне:
  • Аккорды и текст

Страница создана 21.02.2012
http://primanota.ru/black-keys/ill-be-your-man-chords.htm
Привет, Гость.
Предлагаем пройти революционный курс по гитаре.
Подарок от PrimaNota.Ru, забирай!