PrimaNota.ru - самый крупный в мире бесплатный архив песенных текстов, аккордов, табулатур и нот


Black Keys - Just Couldnt Tie Me Down - текст песни, таба, видео

Регистрация Запомнить меня
Войти через:  Facebook Google Twitter Vk Yandex Mail.ru

Black Keys - Just Couldnt Tie Me Down - текст песни, таба, видео

Печатать
Просмотров: 359
3. JUST COULDN'T TIE ME DOWN

Intro
[---/7---0-0---7-7-5-5-3-3-5-3-0---]
[--------0-0---7-7-5-5-3-3-5-3-0---]
[----------------------------------]
[----------------------------------]
[----------------------------------]
[----------------------------------]

Riff 1
[---0-----0---0---3-----5---7-7---0-----0-0---7-7-5-5-3-3-5-3-0---]
[---0-----0---0---3-----5---7-7---0-----0-0---7-7-5-5-3-3-5-3-0---]
[-----------------------------------------------------------------]
[-----------------------------------------------------------------]
[-----------------------------------------------------------------]
[-----0-0---0-------3-3-------------0-0---------------------------]

Riff 2
[-----------------------------------------------------------------]
[-----------------------------------------------------------------]
[-----------------------------------------------------------------]
[-----------------------------------------------------------------]
[---5h7-5h7-5h7-5h7---3h5-3h5-3h5-3h5---0h2-0h2-0h2-0h2---0-------]
[-------------------------------------------------------------3---]
Добавлено: 07.04.2012
Другие материалы по этой песне:
  • Аккорды и текст

Страница создана 07.04.2012
http://primanota.ru/black-keys/just-couldnt-tie-me-down-chords.htm
Привет, Гость.
Предлагаем пройти революционный курс по гитаре.
Подарок от PrimaNota.Ru, забирай!