PrimaNota.ru - самый крупный в мире бесплатный архив песенных текстов, аккордов, табулатур и нот


Biohazard - Sellout - текст песни, таба, бас-таба, видео

Регистрация Запомнить меня
Войти через:  Facebook Google Twitter Vk Yandex Mail.ru

Biohazard - Sellout - текст песни, таба, бас-таба, видео

Печатать
Просмотров: 224
Biohazard - Sellout
Album: Uncivilization
Tuning: C G C F A D
Tabbed By: Dean K. (projectwyze13@hotmail.com)


|--------------------------------------------------------|
|--------------------------------------------------------|
|--------------------------------------------------------|
|--------------------------------------------------------|
|--------------------------------------------------------|
|-1-0-0--3-1-0-4-3-1-0--3-1-0-4-3-1-0---0----------------|
         2x             1x

|--------------------------------------------------------|
|--------------------------------------------------------|
|--------------------------------------------------------|
|--------------------------------------------------------|
|-1-0-0--3-1-0-4-3-1-0--3-1-0-4-3-1-0----0---------------|
|-1-0-0--3-1-0-4-3-1-0--3-1-0-4-3-1-0----0---------------|
         2x             1x

|--------------------------------------------------------|
|--------------------------------------------------------|
|--------------------------------------------------------|
|----------------------------------------3--6------------|
|-1-0-0--3-1-0-4-3-1-0--3-1-0-4-3-1-0----1--4------------|
|-1-0-0--3-1-0-4-3-1-0--3-1-0-4-3-1-0--------------------|
         2x             1x

|--------------------------------------------------------|
|--------------------------------------------------------|
|--------------------------------------------------------|
|--------------------------------------------------------|
|-1-0-0--3-1-0-4-3-1-0--3-1-0-4-3-1-0----0---------------|
|-1-0-0--3-1-0-4-3-1-0--3-1-0-4-3-1-0----0---------------|
         2x             1x

|--------------------------------------------------------|
|--------------------------------------------------------|
|--------------------------------------------------------|
|----------------------------------------3--6------------|
|-1-0-0--3-1-0-4-3-1-0--3-1-0-4-3-1-0----1--4------------|
|-1-0-0--3-1-0-4-3-1-0--3-1-0-4-3-1-0--------------------|
         2x             1x

|--------------------------------------------------------|
|--------------------------------------------------------|
|--------------------------------------------------------|
|--------------------------------------------------------|
|-5--------1------6--3--0--3--6----0----6--0--3--6--0----|
|-5--------1------6--3--0--3--6----0----6--0--3--6--0----|

|--------------------------------------------------------|
|--------------------------------------------------------|
|--------------------------------------------------------|
|-------------------------------x---x--------------------|
|-6--3--0--3--6----0----6--0----x---x------5--------1----|
|-6--3--0--3--6----0----6--0----x---x------5--------1----|

|--------------------------------------------------------|
|--------------------------------------------------------|
|--------------------------------------------------------|
|--------------------------------------------------------|
|--------------------------------------------------------|
|-1-0-0--3-1-0-4-3-1-0--3-1-0-4-3-1-0---0----------------|
         2x             1x

|--------------------------------------------------------|
|--------------------------------------------------------|
|--------------------------------------------------------|
|--------------------------------------------------------|
|-1-0-0--3-1-0-4-3-1-0--3-1-0-4-3-1-0----0---------------|
|-1-0-0--3-1-0-4-3-1-0--3-1-0-4-3-1-0----0---------------|
         2x             1x
         
|--------------------------------------------------------|
|--------------------------------------------------------|
|--------------------------------------------------------|
|----------------------------------------3--6------------|
|-1-0-0--3-1-0-4-3-1-0--3-1-0-4-3-1-0----1--4------------|
|-1-0-0--3-1-0-4-3-1-0--3-1-0-4-3-1-0--------------------|
         2x             1x

|--------------------------------------------------------|
|--------------------------------------------------------|
|--------------------------------------------------------|
|--------------------------------------------------------|
|-1-0-0--3-1-0-4-3-1-0--3-1-0-4-3-1-0----0---------------|
|-1-0-0--3-1-0-4-3-1-0--3-1-0-4-3-1-0----0---------------|
         2x             1x

|--------------------------------------------------------|
|--------------------------------------------------------|
|--------------------------------------------------------|
|----------------------------------------3--6------------|
|-1-0-0--3-1-0-4-3-1-0--3-1-0-4-3-1-0----1--4------------|
|-1-0-0--3-1-0-4-3-1-0--3-1-0-4-3-1-0--------------------|
         2x             1x

|--------------------------------------------------------|
|--------------------------------------------------------|
|--------------------------------------------------------|
|--------------------------------------------------------|
|-5--------1------6--3--0--3--6----0----6--0--3--6--0----|
|-5--------1------6--3--0--3--6----0----6--0--3--6--0----|

|--------------------------------------------------------|
|--------------------------------------------------------|
|--------------------------------------------------------|
|-------------------------------x---x--------------------|
|-6--3--0--3--6----0----6--0----x---x------5--------1----|
|-6--3--0--3--6----0----6--0----x---x------5--------1----|

|--------------------------------------------------------|
|--------------------------------------------------------|
|--------------------------------------------------------|
|--------------------------------------------------------|
|-6-3-0-3-6--0--6-0-3-6-0--6-3-0-3-6--0--6--0----x---x---|
|-6-3-0-3-6--0--6-0-3-6-0--6-3-0-3-6--0--6--0----x---x---|

|--------------------------------------------------------|
|--------------------------------------------------------|
|--------------------------------------------------------|
|--------------------------------------------------------|
|-6-3-0-3-6--0--6-0-3-6-0--6-3-0-3-6--0--6--0----x---x---|
|-6-3-0-3-6--0--6-0-3-6-0--6-3-0-3-6--0--6--0----x---x---|

|--------------------------------------------------------|
|--------------------------------------------------------|
|--------------------------------------------------------|
|--------------------------------------------------------|
|-6-3-0-3-6--0--6-0-3-6-0--6-3-0-3-6--0--6--0----x---x---|
|-6-3-0-3-6--0--6-0-3-6-0--6-3-0-3-6--0--6--0----x---x---|

|--------------------------------------------------------|
|--------------------------------------------------------|
|--------------------------------------------------------|
|--------------------------------------------------------|
|-6-3-0-3-6--0--6-0-3-6-0--6-3-0-3-6--0--6--0----x---x---|
|-6-3-0-3-6--0--6-0-3-6-0--6-3-0-3-6--0--6--0----x---x---|


|----------------------------------------------------------------|
|----------------------------------------------------------------|
|----------------------------------------------------------------|
|----------------------------------------------------------------|
|-----------------------------------------------0--3---0--3------|
|-0-0-0--6-0--0-6-0-0-0--0-0-0-6-0--0--0-3--0-3------------------|

|-------------------------------------------------------|
|-------------------------------------------------------|
|-------------------------------------------------------|
|-------------------------------------------------------|
|-0-0-0--6-0--0-6-0-0-0--0-0-0-6-0--0--0-3--0-3---------|
|-0-0-0--6-0--0-6-0-0-0--0-0-0-6-0--0--0-3--0-3---------|

|-------------------------------------------------------|
|-------------------------------------------------------|
|-------------------------------------------------------|
|-------------------------------------------------------|
|-0-0-0--6-0--0-6-0-0-0--0-0-0-6-0--0--0-3--0-3---------|
|-0-0-0--6-0--0-6-0-0-0--0-0-0-6-0--0--0-3--0-3---------|

|-------------------------------------------------------|
|-------------------------------------------------------|
|-------------------------------------------------------|
|-------------------------------------------------------|
|-0-0-0--6-0--0-6-0-0-0--0-0-0-6-0--0---0-3--0-3--------|
|-0-0-0--6-0--0-6-0-0-0--0-0-0-6-0--0---0-3--0-3--------|
  PM---------------------------------|

|-------------------------------------------------------|
|-------------------------------------------------------|
|-------------------------------------------------------|
|-------------------------------------------------------|
|-0-0-0--6-0--0-6-0-0-0--0-0-0-6-0--0---0-3--0-3--------|
|-0-0-0--6-0--0-6-0-0-0--0-0-0-6-0--0---0-3--0-3--------|
  PM---------------------------------|


|-------------------------------------------------------|
|-------------------------------------------------------|
|-------------------------------------------------------|
|-------------------------------------------------------|
|-0-0-0--6-0--0-6-0-0-0--0-0-0-6-0--0--0-3--0-3---------|
|-0-0-0--6-0--0-6-0-0-0--0-0-0-6-0--0--0-3--0-3---------|

|-------------------------------------------------------|
|-------------------------------------------------------|
|-------------------------------------------------------|
|-------------------------------------------------------|
|-0-0-0--6-0--0-6-0-0-0--0-0-0-6-0--0--0-3--0-3---------|
|-0-0-0--6-0--0-6-0-0-0--0-0-0-6-0--0--0-3--0-3---------|

|-------------------------------------------------------|
|-------------------------------------------------------|
|-------------------------------------------------------|
|-------------------------------------------------------|
|-0-0-0--6-0--0-6-0-0-0--0-0-0-6-0--0---0-3--0-3--------|
|-0-0-0--6-0--0-6-0-0-0--0-0-0-6-0--0---0-3--0-3--------|
  PM---------------------------------|

|-------------------------------------------------------|
|-------------------------------------------------------|
|-------------------------------------------------------|
|-------------------------------------------------------|
|-0-0-0--6-0--0-6-0-0-0--0-0-0-6-0--0---0-3--0-3--------|
|-0-0-0--6-0--0-6-0-0-0--0-0-0-6-0--0---0-3--0-3--------|
  PM---------------------------------|

|-------------------------------------------------------|
|-------------------------------------------------------|
|-------------------------------------------------------|
|-------------------------------------------------------|
|-0-0-0--6-0--0-6-0-0-0--0-0-0-6-0--0--0-3--0-3---------|
|-0-0-0--6-0--0-6-0-0-0--0-0-0-6-0--0--0-3--0-3---------|

|-------------------------------------------------------|
|-------------------------------------------------------|
|-------------------------------------------------------|
|-------------------------------------------------------|
|-0-0-0--6-0--0-6-0-0-0--0-0-0-6-0--0--0-3--0-3---------|
|-0-0-0--6-0--0-6-0-0-0--0-0-0-6-0--0--0-3--0-3---------|

|-------------------------------------------------------|
|-------------------------------------------------------|
|-------------------------------------------------------|
|-------------------------------------------------------|
|-5--------1------6--3--0--3--6----0----6--0--3--6--0---|
|-5--------1------6--3--0--3--6----0----6--0--3--6--0---|

|-------------------------------------------------------|
|-------------------------------------------------------|
|-------------------------------------------------------|
|-------------------------------x---x-------------------|
|-6--3--0--3--6----0----6--0----x---x------5--------1---|
|-6--3--0--3--6----0----6--0----x---x------5--------1---|

|-------------------------------------------------------|
|-------------------------------------------------------|
|-------------------------------------------------------|
|-------------------------------------------------------|
|-6-3-0-3-6--0--6-0-3-6-0--6-3-0-3-6--0--6--0----x---x--|
|-6-3-0-3-6--0--6-0-3-6-0--6-3-0-3-6--0--6--0----x---x--|

|-------------------------------------------------------|
|-------------------------------------------------------|
|-------------------------------------------------------|
|-------------------------------------------------------|
|-6-3-0-3-6--0--6-0-3-6-0--6-3-0-3-6--0--6--0----x---x--|
|-6-3-0-3-6--0--6-0-3-6-0--6-3-0-3-6--0--6--0----x---x--|

|-------------------------------------------------------|
|-------------------------------------------------------|
|-------------------------------------------------------|
|-------------------------------------------------------|
|-6-3-0-3-6--0--6-0-3-6-0--6-3-0-3-6--0--6--0----x---x--|
|-6-3-0-3-6--0--6-0-3-6-0--6-3-0-3-6--0--6--0----x---x--|

|-------------------------------------------------------|
|-------------------------------------------------------|
|-------------------------------------------------------|
|-------------------------------------------------------|
|-6-3-0-3-6--0--6-0-3-6-0--6-3-0-3-6--0--6-0--3--3------|
|-6-3-0-3-6--0--6-0-3-6-0--6-3-0-3-6--0--6-0--3--3------|
Добавлено: 25.07.2012
Другие материалы по этой песне:

Страница создана 04.06.2012
http://primanota.ru/biohazard/sellout-chords.htm
Привет, Гость.
Предлагаем пройти революционный курс по гитаре.
Подарок от PrimaNota.Ru, забирай!