PrimaNota.ru - самый крупный в мире бесплатный архив песенных текстов, аккордов, табулатур и нот


Biohazard - Business - текст песни, таба, видео

Регистрация Запомнить меня
Войти через:  Facebook Google Twitter Vk Yandex Mail.ru

Biohazard - Business - текст песни, таба, видео

Печатать
Просмотров: 134
Авторы: Biohazard

BIOHAZARD - "Business" (from "Urban Discipline", 1992)

Translated by Michiel Hautus from The Netherlands, 22 - 02 - 2001
(main riff taken from http://www.gatesofinfinity.com/tabs/B/Biohazard/business.txt)

tune down all strings one step


	symbols:
	/   = slide up
	\   = slide down
	< > = artificial harmonic
	~   = vibrato
	x   = mute string


Main riff

E |-----------------------------------|-----------------------------------|
B |-----------------------------------|-----------------------------------|
G |-----------------------------------|-----------------------------------|
D |---4/5---5\4------7/8---8\7--------|---4/5---5\4------7/8---8\7--------|
A |---2/3---3\2------5/6---6\5---6/7--|---2/3---3\2------5/6---6\5---<7>~-|
E |-0-----0------0-0-----0-----0-4/5--|-0-----0------0-0-----0------------|

E |-----------------------------------|-----------------------------------|
B |-----------------------------------|-----------------------------------|
G |-----------------------------------|-----------------------------------|
D |---4/5---5\4------7/8---8\7--------|-8-8-8-7-7-7---------------10--9---|
A |---2/3---3\2------5/6---6\5---6/7--|-6-6-6-5-5-5-6-6-6-7-7-7---8---7---|
E |-0-----0------0-0-----0-----0-4/5--|-------------4-4-4-5-5-5---8---7---|

First guitar plays E7 chord (05xxxx) instead of E artificial harmonic in second bar

Chorus
							    | let ring |
E |-----------------------------------|-----------------------------------|
B |-----------------------------------|-----------------------------------|
G |-----------------------------------|---------------0-----0-------------|
D |-----------------------------------|---------------0-----0-------------|
A |--5/7-7-5/7-7-5/7-7-5/7-7-8-7-5-7--|--5/7-7-5/7-7--x-------------------|
E |--3/5-5-3/5-5-3/5-5-3/5-5-6-5-3-5--|--3/5-5-3/5-5--3----------5-0-2-3--|

E |-----------------------------------|---------------------------------------|
B |-----------------------------------|---------------------------------------|
G |-----------------------------------|---------------------------------------|
D |-----------------------------------|-------------------------6----5--------|
A |--5/7-7-5/7-7-5/7-7-5/7-7-8-7-5-7--|--5/7-7-5/7-7--8----3----4----3----3-3-|
E |--3/5-5-3/5-5-3/5-5-3/5-5-6-5-3-5--|--3/5-5-3/5-5--6----1----4----3----1-1-|

Interlude

E |-----------------------------|-----------------------------|
B |-----------------------------|-----------------------------|
G |-----------------------------|-----------------------------|
D |-----5---------6-------------|-----------------------------|
A |-2-2-5---2-2-2-5-------5/7---|-2-2--5\4-4-4\3-3-3-3----7/8-|
E |-0-0-3---0-0-0-4-----0-3/5---|-0-0--3\2-2-2\1-1-1-1--0-5/6-|

E |-----------------------------|-----------------------------|
B |-----------------------------|-----------------------------|
G |-----------------------------|-----------------------------|
D |-----5---------6-------------|-----------------------------|
A |-2-2-5---2-2-2-5-------5/7---|-2-2---5---7-5-8-8-6-----7/8-|
E |-0-0-3---0-0-0-4-----0-3/5---|-0-0-0-3-0-5-3-6-6-4---0-5/6-|

Second guitar plays G and G# artificial harmonic with vibrato
instead of G5 and G#(+5) chord in first and third bar

Interlude end

  | play three times            | and then fourth time:       |
E |-----------------------------|-----------------------------|
B |-----------------------------|-----------------------------|
G |-----------------------------|-----------------------------|
D |-----------------------------|-----------------------------|
A |-2-2---5---7-5-8-8-6-----7/8-|-2-2---5---7-5-8-8-6---------|
E |-0-0-0-3-0-5-3-6-6-4---0-5/6-|-0-0-0-3-0-5-3-6-6-4---------|


General note: bass plays sometimes other tones than the root,
fifths and maybe sevenths, it gives a special sound!


More tabs (Samson, Rollins Band, Kiss, Paradise Lost, Mot?rhead, Black Sabbath):
http://ourworld-top.cs.com/HAUTUS/index.htm
Добавлено: 07.03.2012
Другие материалы по этой песне:

Страница создана 07.03.2012
http://primanota.ru/biohazard/business-chords.htm
Привет, Гость.
Предлагаем пройти революционный курс по гитаре.
Подарок от PrimaNota.Ru, забирай!