PrimaNota.ru - самый крупный в мире бесплатный архив песенных текстов, аккордов, табулатур и нот


Biohazard - My Life My Way - текст песни, таба, видео

Регистрация Запомнить меня
Войти через:  Facebook Google Twitter Vk Yandex Mail.ru

Biohazard - My Life My Way - текст песни, таба, видео

Печатать
Просмотров: 258
Уроки эстрадного вокала в Санкт-Петербурге
Drop C Tuning (CGCFAD)

Intro
D------------------------------------------------|
A------------------------------------------------|
F------------------------------------------------|
C-3-6-3-2-----3-6-3-2-3----3-6-3-2-----3-6-3-2-3-|  X2
G-3-6-3-2-----3-6-3-2-3----3-6-3-2-----3-6-3-2-3-|
C-3-6-3-2-----3-6-3-2-3----3-6-3-2-----3-6-3-2-3-|

D---------|
A---------|
F---------|
C-3-6-3-2-|
G-3-6-3-2-|
C-3-6-3-2-|


Verse
Guitar 1
D---------------------------------------------|
A---------------------------------------------|
F---------------------------------------------|
C---------------------------------------------|  X2
G-2-X-2-3-0-2-0-3-6-5-2-X-2-3-0-2-0-3---------|
C-2-X-2-3-0-2-0-3-6-5-2-X-2-3-0-2-0-3---------|

Guitar 2
D---------------------------------------------|
A---------------------------------------------|
F---------------------------------------------|
C-------------------------------------3-6-3-2-|
G-------------------------------------3-6-3-2-|
C-------------------------------------3-6-3-2-|

D---------------------------------------------|
A---------------------------------------------|
F---------------------------------------------|
C---------------------------------------------|  X2
G-2-X-2-3-0-2-0-3-6-5-2-X-2-3-0-2-0-3---------|
C-2-X-2-3-0-2-0-3-6-5-2-X-2-3-0-2-0-3---------|

D---------------------------------------------|
A---------------------------------------------|
F---------------------------------------------|
C-------------------------------------3-6-3-2-|
G-------------------------------------3-6-3-2-|
C-------------------------------------3-6-3-2-|

D---------------------------------------------|
A---------------------------------------------|
F---------------------------------------------|
C---------------------------------------------|  X2
G-2-X-2-3-0-2-0-3-6-5-2-X-2-3-0-2-0-3---------|
C-2-X-2-3-0-2-0-3-6-5-2-X-2-3-0-2-0-3---------|

D---------------------------------------------|
A---------------------------------------------|
F---------------------------------------------|
C-------------------------------------3-6-3-2-|
G-------------------------------------3-6-3-2-|
C-------------------------------------3-6-3-2-|

Chorus
D------------------------------------------------|
A------------------------------------------------|
F------------------------------------------------|
C-3-6-3-2-3----3-6-3-2-----3-6-3-2-3----3-6-3-2--|
G-3-6-3-2-3----3-6-3-2-----3-6-3-2-3----3-6-3-2--|
C-3-6-3-2-3----3-6-3-2-----3-6-3-2-3----3-6-3-2--|


Verse
Guitar 1
D---------------------------------------------|
A---------------------------------------------|
F---------------------------------------------|
C---------------------------------------------|  X2
G-2-X-2-3-0-2-0-3-6-5-2-X-2-3-0-2-0-3---------|
C-2-X-2-3-0-2-0-3-6-5-2-X-2-3-0-2-0-3---------|

Guitar 2
D---------------------------------------------|
A---------------------------------------------|
F---------------------------------------------|
C-------------------------------------3-6-3-2-|
G-------------------------------------3-6-3-2-|
C-------------------------------------3-6-3-2-|

D---------------------------------------------|
A---------------------------------------------|
F---------------------------------------------|
C---------------------------------------------|  X2
G-2-X-2-3-0-2-0-3-6-5-2-X-2-3-0-2-0-3---------|
C-2-X-2-3-0-2-0-3-6-5-2-X-2-3-0-2-0-3---------|

D---------------------------------------------|
A---------------------------------------------|
F---------------------------------------------|
C-------------------------------------3-6-3-2-|
G-------------------------------------3-6-3-2-|
C-------------------------------------3-6-3-2-|

Chorus
D------------------------------------|
A------------------------------------|
F------------------------------------|
C-3-6-3-2-3----3-6-3-2-----3-6-3-2-3-|
G-3-6-3-2-3----3-6-3-2-----3-6-3-2-3-|
C-3-6-3-2-3----3-6-3-2-----3-6-3-2-3-|


Bridge
D--------------------------------|
A--------------------------------|
F--------------------------------|
C-5-5-5-8-7-3-2--2-3-3-3-6-3-2-2-|  X8
G-5-5-5-8-7-3-2--2-3-3-3-6-3-2-2-|
C-5-5-5-8-7-3-2--2-3-3-3-6-3-2-2-|

D----------------------|
A----------------------|
F----------------------|
C-5-5-5-8-7-3-2---2----|
G-5-5-5-8-7-3-2---2----|
C-5-5-5-8-7-3-2---2----|

Chorus
D------------------------------------------------------------|
A------------------------------------------------------------|
F------------------------------------------------------------|
C-3-6-3-2------3-6-3-2-3----3-6-3-2----3-6-3-2-3-----3-6-3-2-|
G-3-6-3-2------3-6-3-2-3----3-6-3-2----3-6-3-2-3-----3-6-3-2-|
C-3-6-3-2------3-6-3-2-3----3-6-3-2----3-6-3-2-3-----3-6-3-2-|
Добавлено: 05.09.2015
Вам также может быть интересно:
Другие материалы по этой песне:
  • Аккорды и текст

Страница создана 20.03.2012
http://primanota.ru/biohazard/my-life-my-way-chords.htm
Привет, Гость.
Предлагаем пройти революционный курс по гитаре.
Подарок от PrimaNota.Ru, забирай!