PrimaNota.ru - самый крупный в мире бесплатный архив песенных текстов, аккордов, табулатур и нот


Biohazard - Urban Discipline - текст песни, бас-таба, видео

Регистрация Запомнить меня
Войти через:  Facebook Google Twitter Vk Yandex Mail.ru

Biohazard - Urban Discipline - текст песни, бас-таба, видео

Печатать
Просмотров: 162
tune down

g|---------------------------|
d|---------------------------|
G|---------------------------|
D|--/12--12--13--12-12-------|


g|---------------------------|---------------------------------|
d|---------------------------|---------------------------------|
G|---------------------------|---------------------------------|
D|-0--0--1---1--0---0--6-4-3-|-0--0--1--1--0---0--000-6-000-6--|



g|----------------------------|---------------------------|
d|----------------------------|---------------------------|
G|7-7-7--8--8--8--7-7-7-------|7-7-7--8--8--8-------------|
D|-----------------------6-4-3|----------------6-6-6-6-6--|

F|----------|-----------------------------------|
C|----------|-----------------------------------|
G|----------|7-7-7--8--8-8----------------------|
D|----------|-------------0-0-6-0-0-6-0-0-6-6-6-|


F|----------------------------|-----------------------------------------------|
C|----------------------------|-----------------------------------------------|
G|----------------------------|--------7-------7-----7--8-------8------8---8-7|
D|-0--0-00-1-1-1-1-0----------|0-0-0-0--0-0-0-0--0-0-----0-0-0-0--0-0-0--0----|



g|-------------------|
d|-------------------|
G|-------------------|
D|-0--6--4--3--0-----|



g|---------------------------------------------------------------------|
d|---------------------------------------------------------------------|
G|---------------------------------------------------------------------|
D|0-0--0-1--0-0--0-3-4-3--0-0--0-1--0-0--0-3-4--0-0--0-1--0-0--0-3-4-3-|

g|---------------------|
d|---------------------|
G|---------------------|
D|0-0-0-0-6-0-0-0-0-6-6|


g|-----------|
d|-----------|
G|-----------|
D|-0-0-0-0-0-|


F|----------------------|
C|----------------------|
G|----------------------|
D|-1-0-0-0-1-0-0-0-6-0-6|






F|---------------|-------------------------|
C|---------------|-------------------------|
G|---------------|2-2-2--3-3-3-8-8-8--8-6-5|
D|---------------|0-0-0--1-1-1-6-6-6--6-4-3|
Добавлено: 14.03.2012
Другие материалы по этой песне:

Страница создана 14.03.2012
http://primanota.ru/biohazard/urban-discipline-chords.htm
Привет, Гость.
Предлагаем пройти революционный курс по гитаре.
Подарок от PrimaNota.Ru, забирай!