PrimaNota.ru - самый крупный в мире бесплатный архив песенных текстов, аккордов, табулатур и нот


Biffy Clyro - Shock Shock - таба, видео

Регистрация Запомнить меня
Войти через:  Facebook Google Twitter Vk Yandex Mail.ru

Biffy Clyro - Shock Shock - таба, видео

Печатать
Просмотров: 167
Авторы музыки: Simon Neil
Авторы текста: Simon Neil
-------------------------------------------------------------------------------
                          Shock Shock - Biffy Clyro
-------------------------------------------------------------------------------
Tabbed by: Stuart Devers
Email: thisistheone57@hotmail.com

Tuning: Drop D, then half-step down (Drop C#)

Noticed this song has no tabs on UG, so thought I'd give it a shot myself. First tab, so 
feedback/comments welcome.

Mon the Biffy.

VERSE (Not sure on how many of each, but its pretty easy to work out)

D#|------------------------------------------------------------------------|
A#|------------------------------------------------------------------------|
F#|-555555/1212121212121212121212121212--1010101010101010101010101010------|
C#|------------------------------------------------------------------------|
G#|-333333/1010101010101010101010101010--8-8-8-8-8-8-8-8-8-8-8-8-8-8-------|
C#|------------------------------------------------------------------------|

D#|------------------------------------------------------------------------|
A#|------------------------------------------------------------------------|
F#|-1010101010101010101010101010--8-8-8-8-8-8-8-8-8-8-8-8-8----------------|
C#|------------------------------------------------------------------------|
G#|-8-8-8-8-8-8-8-8-8-8-8-8-8-8---6-6-6-6-6-6-6-6-6-6-6-6-6----------------|
C#|------------------------------------------------------------------------|

D#|------------------------------------------------------------------------|
A#|------------------------------------------------------------------------|
F#|-1212121212121212121212121212--1010101010101010101010101010-------------|
C#|------------------------------------------------------------------------|
G#|-1010101010101010101010101010--8-8-8-8-8-8-8-8-8-8-8-8-8-8--------------|
C#|------------------------------------------------------------------------|

D#|------------------------------------------------------------------------|
A#|------------------------------------------------------------------------|
F#|-7-7-7-7-7-7-7-7-7-7-7-7-7---8-8-8-8-8-8-8-8-8-8-8-8-8------------------|
C#|------------------------------------------------------------------------|
G#|-5-5-5-5-5-5-5-5-5-5-5-5-5---6-6-6-6-6-6-6-6-6-6-6-6-6------------------|
C#|------------------------------------------------------------------------|

Repeat (x2) - Second time without slide.


CHORUS


D#|------------------------------------------------------------------------|
A#|------------------------------------------------------------------------|
F#|------------------------------------------------------------------------|
C#|-8-8-8-8-8-8-8-8-8-8--0-0-0-0-0-0-0-0-0-0--5-5-5-5-5-5-5-5-5-5----------|
G#|-8-8-8-8-8-8-8-8-8-8--0-0-0-0-0-0-0-0-0-0--5-5-5-5-5-5-5-5-5-5----------|
C#|-8-8-8-8-8-8-8-8-8-8--0-0-0-0-0-0-0-0-0-0--5-5-5-5-5-5-5-5-5-5----------|

D#|------------------------------------------------------------------------|
A#|------------------------------------------------------------------------|
F#|------------------------------------------------------------------------|
C#|-1-1-1-1-1-1-1-1-1-1-----------------------8-8-8-8-8-8-8-8-8-8----------|
G#|-1-1-1-1-1-1-1-1-1-1-----------------------8-8-8-8-8-8-8-8-8-8----------|
C#|-1-1-1-1-1-1-1-1-1-1-----------------------8-8-8-8-8-8-8-8-8-8----------|

D#|------------------------------------------------------------------------|
A#|------------------------------------------------------------------------|
F#|------------------------------------------------------------------------|
C#|-0-0-0-0-0-0-0-0-0-0--1-1-1-1-1-1-1-1-1-1--1-1-1-1-1-1-1-1-1-1-1--------|
G#|-0-0-0-0-0-0-0-0-0-0--1-1-1-1-1-1-1-1-1-1--1-1-1-1-1-1-1-1-1-1-1--------|
C#|-0-0-0-0-0-0-0-0-0-0--1-1-1-1-1-1-1-1-1-1--1-1-1-1-1-1-1-1-1-1-1--------|

Repeat verse (x1) (no slide from 3rd to 10th octaves)


Repeat chorus (x2)

BRIDGE


D#|------------------------------------------------------------------------|
A#|------------------------------------------------------------------------|
F#|------------------------------------------------------------------------|
C#|-5-x-7-8--0---0-0-0-0-----3-x-8-10--5-5-5-5-5---------------------------|
G#|-5-x-7-8--0---0-0-0-0-----3-x-8-10--5-5-5-5-5---------------------------|
C#|-5-x-7-8--0---0-0-0-0-----3-x-8-10--5-5-5-5-5---------------------------|

D#|------------------------------------------------------------------------|
A#|------------------------------------------------------------------------|
F#|------------------------------------------------------------------------|
C#|-5-x-7-8--0---0-0-0-0------3-3-3-3-3-3-3-3-3-3--------------------------|
G#|-5-x-7-8--0---0-0-0-0------3-3-3-3-3-3-3-3-3-3--------------------------|
C#|-5-x-7-8--0---0-0-0-0------3-3-3-3-3-3-3-3-3-3--------------------------|

D#|------------------------------------------------------------------------|
A#|------------------------------------------------------------------------|
F#|------------------------------------------------------------------------|
C#|-5-x-7-8--0---0-0-0-0-----3-x-8-10--5-5-5-5-5---------------------------|
G#|-5-x-7-8--0---0-0-0-0-----3-x-8-10--5-5-5-5-5---------------------------|
C#|-5-x-7-8--0---0-0-0-0-----3-x-8-10--5-5-5-5-5---------------------------|

D#|------------------------------------------------------------------------|
A#|------------------------------------------------------------------------|
F#|------------------------------------------------------------------------|
C#|-1-x-10-12--8---8-8-8-8------4-4-4-4-4-4-4-4-4-4------------------------|
G#|-1-x-10-12--8---8-8-8-8------4-4-4-4-4-4-4-4-4-4------------------------|
C#|-1-x-10-12--8---8-8-8-8------4-4-4-4-4-4-4-4-4-4------------------------|

D#|------------------------------------------------------------------------|
A#|------------------------------------------------------------------------|
F#|-x-x-8-x-5-x-6-6-6-6-6-6-6-6--------------------------------------------|
C#|-x-x---x---x-4-4-4-4-4-4-4-4--------------------------------------------|
G#|-x-x-6-x-3-x-4-4-4-4-4-4-4-4--------------------------------------------|
C#|-------------4-4-4-4-4-4-4-4--------------------------------------------|

Repeat (x2)


FINAL CHORUS

D#|------------------------------------------------------------------------|
A#|------------------------------------------------------------------------|
F#|-x-x-8-x-5-x-101010101010101010---10101010101010101010------------------|
C#|-x-x---x---x-8-8-8-8-8-8-8-8-8----0-0-0-0-0-0-0-0-0-0-------------------|
G#|-x-x-6-x-3-x-8-8-8-8-8-8-8-8-8----0-0-0-0-0-0-0-0-0-0-------------------|
C#|-------------8-8-8-8-8-8-8-8-8----0-0-0-0-0-0-0-0-0-0-------------------|

D#|------------------------------------------------------------------------|
A#|------------------------------------------------------------------------|
F#|-101010101010101010--101010101010101010--7-7-7-7-7-7-7-7-7--------------|
C#|-8-8-8-8-8-8-8-8-8---0-0-0-0-0-0-0-0-0---5-5-5-5-5-5-5-5-5--------------|
G#|-8-8-8-8-8-8-8-8-8---0-0-0-0-0-0-0-0-0---5-5-5-5-5-5-5-5-5--------------|
C#|-8-8-8-8-8-8-8-8-8---0-0-0-0-0-0-0-0-0---5-5-5-5-5-5-5-5-5--------------|

D#|------------------------------------------------------------------------|
A#|------------------------------------------------------------------------|
F#|-3-3-3-3-3-3-3-3-3---7-7-7-7-7-7-7-7-7---3-3-3-3-3-3-3-3-3--------------|
C#|-1-1-1-1-1-1-1-1-1---5-5-5-5-5-5-5-5-5---1-1-1-1-1-1-1-1-1--------------|
G#|-1-1-1-1-1-1-1-1-1---5-5-5-5-5-5-5-5-5---1-1-1-1-1-1-1-1-1--------------|
C#|-1-1-1-1-1-1-1-1-1---5-5-5-5-5-5-5-5-5---1-1-1-1-1-1-1-1-1--------------|

(Repeat x2, second time without octaves at the start, and ends on:


D#|--
A#|--
F#|-5
C#|-3
G#|-3
C#|-3


OUTRO


D#|------------------------------------------------------------------------|
A#|------------------------------------------------------------------------|
F#|------------------------------------------------------------------------|
C#|-1-x-3-x-5--5-5-5-5-5------1-x-3-x-5--5-5-5-5-5-------------------------|
G#|-1-x-3-x-5--5-5-5-5-5------1-x-3-x-5--5-5-5-5-5-------------------------|
C#|-1-x-3-x-5--5-5-5-5-5------1-x-3-x-5--5-5-5-5-5-------------------------|

D#|------------------------------------------------------------------------|
A#|------------------------------------------------------------------------|
F#|------------------------------------------------------------------------|
C#|-1-x-3-x-5--5-5-5-5-5------1-x-3-x-5--5-5-5-5-5-------------------------|
G#|-1-x-3-x-5--5-5-5-5-5------1-x-3-x-5--5-5-5-5-5-------------------------|
C#|-1-x-3-x-5--5-5-5-5-5------1-x-3-x-5--5-5-5-5-5-------------------------|

D#|------------------------------------------------------------------------|
A#|------------------------------------------------------------------------|
F#|------------------------------------------------------------------------|
C#|-1-x-3------------------------------------------------------------------|
G#|-1-x-3------------------------------------------------------------------|
C#|-1-x-3------------------------------------------------------------------|



| /  slide up
| \  slide down
| h  hammer-on
| p  pull-off
| ~  vibrato
| +  harmonic
| x  Mute note
===============================================================================
Добавлено: 23.02.2012
Другие материалы по этой песне:

Страница создана 23.02.2012
http://primanota.ru/biffy-clyro/shock-shock-chords.htm
Привет, Гость.
Предлагаем пройти революционный курс по гитаре.
Подарок от PrimaNota.Ru, забирай!