PrimaNota.ru - самый крупный в мире бесплатный архив песенных текстов, аккордов, табулатур и нот


Biffy Clyro - Mountains - аккорды и текст, таба, бас-таба, драм-таба, видео

Регистрация Запомнить меня
Войти через:  Facebook Google Twitter Vk Yandex Mail.ru

Biffy Clyro - Mountains - аккорды и текст, таба, бас-таба, драм-таба, видео

Печатать
Просмотров: 721
Авторы музыки: Simon Neil
Авторы текста: Simon Neil
Mountains
Biffy Clyro
                     MOUNTAINS ACOUSTIC - Biffy Clyro 





Tabbed by:Jack


Tuning:Drop-D                 Key:
                              
Chords:                       * Strummed
Bm-|X24432|                   / Slide
G-|X55433|
A-|X02220|
Dsus2-|X00230|
Aadd11-|X40230|
G5-|55X03X|

Intro/Verse:

Bm*                                    G*
I took a bite out of a mountain range, thought my teeth would break the mountain down.
Bm*                      G*
Lets go, I want to go, all the way to the horizon.

Bm                                   G
I took a drink out of the ocean and I'm treading water there before I drown.
Bm                          G
Lets dive, I want to dive, to the bottom of the ocean.
A                             Bm
I took a ride, I took a ride, I wouldn't go there without you.
A                                    Bm
Lets take a ride, we'll take a ride. I wouldn't leave here without you.

Chorus:        

Add11(quick)

Dsus2          Aadd11 Dsus2      Aadd11  Bm                           Aadd11
I am a mountain,      I am the sea,      you can't take that away from me.

Dsus2          Aadd11 Dsus2      Aadd11  Bm                           Aadd11
I am a mountain,      I am the sea,      you can't take that away from me.


                   Cause you tear us apart...
E|--------------------|--------------------|------------------|-----------|
B|--------------------|--------------------|------------------|-----------|
G|------14-----14--14-|------14-----14--14-|-----14----14--14-|-----14----|
D|----11-----11-------|----12-----12-------|---12----12-------|---12------|
A|-12-----12-----12---|-14-----14-----14---|-10----10----10---|-----------|
D|--------------------|--------------------|------------------|-12----12--|
                                                                                 
E|--------------------|--------------------|------------------|-----------------|
B|--------------------|--------------------|------------------|-----------------|
G|------14-----14--14-|------14-----14--14-|-----14----14--14-|-----14------14--|
D|----12-----12-------|----12-----12-------|---12----12-------|---12--12--12--12|
A|-12-----12-----12---|-14-----14-----14---|-10----10----10---|---------12------|
D|--------------------|--------------------|------------------|-12--------------|
X2

Lyrics: you tear us apart, with all the things you don't like.
You can't understand that I won't leave 'til we're finished here, and then you'll find 
where it all went wrong.


Verse:

Bm                                G
I wrote a note to the jungle and it wrote me back that I was never crowned,
Bm                       G
  king of the jungle, so there's and end to my horizon.
A                               Bm
I took a ride, I took a ride. I wouldn't go there without you.
A                                    Bm
Lets take a ride, we'll take a ride. I wouldn't leave here without you.


Chorus:        

Add11(quick)

Dsus2          Aadd11 Dsus2      Aadd11  Bm                           Aadd11
I am a mountain,      I am the sea,      you can't take that away from me.

Dsus2          Aadd11 Dsus2      Aadd11                                     
I am a mountain,      I am the sea,      

A         Bm             G5                       Dsus2
Cause you tear us apart,    with all the things you don't like.

A      Bm           G5             A               Bm             G5
You can't understand that I won't leave 'til we're finished here, and then 
     Dsus2  A   Bm           G5   Dsus2
you'll find out where it all went wrong.


Solo:

e|-----------------|---------------------|---------------------|-------------------------|
B|-----------------|---------------------|---------------------|-------------------------|
G|-4-4-4-4-6-6-6-6-|-7-7-7-7/14-14-14-12-|-11-11-11-11-9-9-9-9-|-12-12-12-12-12-12-12-12-|
D|-----------------|---------------------|---------------------|-------------------------|
A|-2-2-2-2-4-4-4-4-|-5-5-5-5/12-12-12-10-|-9--9--9--9--7-7-7-7-|-10-10-10-10-10-10-10-10-|
D|-----------------|---------------------|---------------------|-------------------------|

e|-----------------|-----------------|-------------------------|-------------------------|
B|-----------------|-----------------|-------------------------|-------------------------|
G|-7-7-7-7-6-6-6-6-|-9-9-9-9-9-9-7-7-|-11-11-11-11-11-11-11-12-|-11-11-11-11-11-11-11-11-|
D|-----------------|-----------------|-------------------------|-------------------------|
A|-5-5-5-5-4-4-4-4-|-7-7-7-7-7-7-7-7-|-9--9--9--9--9--9--9--9--|-9--9--9--9--9--9--9--9--|
D|-----------------|-----------------|-------------------------|-------------------------|

Bridge:

Bm            A                      Dsus2  
Nothing lasts forever, except you and me.      
  A                Bm  G5         
(You are my mountain, you are my sea)
Bm             A                       Dsus2  
Love will last forever, between you and me.
   A               Bm  G5    
(You are my mountain, you are my sea)

Chorus:        

Add11(quick)

Dsus2          Aadd11 Dsus2      Aadd11  Bm                           Aadd11
I am a mountain,      I am the sea,      you can't take that away from me.


Dsus2          Aadd11 Dsus2      Aadd11                       
I am a mountain,      I am the sea,


Dsus2*           Aadd11*
I am a mountain,      I am the sea,





Добавлено: 25.02.2012
Другие материалы по этой песне:

Страница создана 23.02.2012
http://primanota.ru/biffy-clyro/mountains-chords.htm
Привет, Гость.
Предлагаем пройти революционный курс по гитаре.
Подарок от PrimaNota.Ru, забирай!