PrimaNota.ru - самый крупный в мире бесплатный архив песенных текстов, аккордов, табулатур и нот


Biffy Clyro - Toottoottoot - таба, видео

Регистрация Запомнить меня
Войти через:  Facebook Google Twitter Vk Yandex Mail.ru

Biffy Clyro - Toottoottoot - таба, видео

Печатать
Просмотров: 143
-------------------------------------------------------------------------------
                         Toottoottoot - Biffy Clyro
-------------------------------------------------------------------------------
Tabbed by: steveprudden
Tuning: Drop C# (Drop D then half a step down)

Here's another Biffy Clyro B-Side. There's a bit more to it than my last tab
(Lonely Revolutions) so there might be a couple of errors. If you see any make 
sure you comment below to let me know.
Unlike some Biffy Clyro songs this must be played in drop C# since there are low
notes that can't be reached if in drop D.

Additional thanks to Ben5492 on the Biffy forums.

Verse
Guitar 1 (0:00)
Repeat x2
D#|---------------------------------------------------------------------------|
A#|---------------------------------------------------------------------------|
F#|-5-5-x-5-5-5------x-------5-5-x-5-7-7-6-6-x-6-6-6--------------------------|
C#|-----x--------5-5-x-5-5-5-----x-----------x---------(x2)-------------------|
G#|-3-3-x-3-3-3------x-------3-3-x-3-5-5-4-4-x-4-4-4--------------------------|
C#|-----x--------5-5-x-5-5-5-----x-----------x--------------------------------|

D#|---------------------------------------------------------------------------|
A#|---------------------------------------------------------------------------|
F#|-11-11-x-11-14-14-7-7-x-7-7-7-7-7-x-7-9-9-6-6-x-6-6-6----------------------|
C#|-------x--------------x-----------x-----------x---------(x2)---------------|
G#|-9--9--x-9--12-12-5-5-x-5-5-5-5-5-x-5-7-7-4-4-x-4-4-4----------------------|
C#|-------x--------------x-----------x-----------x----------------------------|

Guitar 2 (0:00)
Repeat x8
D#|---------------------------------------------------------------------------|
A#|---------------------------------------------------------------------------|
F#|---------------------------------------------------------------------------|
C#|-12-----------5------------12---------11-----------------------------------|
G#|-12-----------5------------12---------12-----------------------------------|
C#|-12-----------5------------12---------11-----------------------------------|


Bridge (0:35)
Repeat x2
D#|---------------------------------------------------------------------------|
A#|---------------------------------------------------------------------------|
F#|-------4---7---6-----------------------------------------------------------|
C#|---7-----------------------------------------------------------------------|
G#|-5---5---5---5-------------------------------------------------------------|
C#|---------------------------------------------------------------------------|


Pre Chorus (0:40)
Repeat x2
D#|---------------------------------------------------------------------------|
A#|---------------------------------------------------------------------------|
F#|---------------------------------------------------------------------------|
C#|-2-2-x-2-2-2-0-0-x-0-0-0-5--5-5-5-5-4--4-4-4-4-----------------------------|
G#|-2-2-x-2-2-2-0-0-x-0-0-0-5--5-5-5-5-5--5-5-5-5-----------------------------|
C#|-2-2-x-2-2-2-0-0-x-0-0-0-5--5-5-5-5-5--5-5-5-5-----------------------------|

 On second pre chorus play the above 3 times then this (1:24)
D#|---------------------------------------------------------------------------|
A#|---------------------------------------------------------------------------|
F#|---------------------------------------------------------------------------|
C#|-2--2-2-2-2-4--4-4-4-4-5--5-5-5-5-5-5-5-5-5-5------------------------------|
G#|-2--2-2-2-2-5--5-5-5-5-5--5-5-5-5-5-5-5-5-5-5------------------------------|
C#|-2--2-2-2-2-4--4-4-4-4-5--5-5-5-5-5-5-5-5-5-5------------------------------|


Chorus
Guitar 1
Part 1 (1:28)
D#|---------------------------------------------------------------------------|
A#|---------------------------------------------------------------------------|
F#|---------------------------------------------------------------------------|
C#|-0--0-0-0-0-0--0-0-0-0-7--7-7-7-7-7--7-7-7-7-9--9-9-9-9--9--11--12---------|
G#|-0--0-0-0-0-0--0-0-0-0-7--7-7-7-7-7--7-7-7-7-9--9-9-9-9--9--11--12---------|
C#|-0--0-0-0-0-0--0-0-0-0-7--7-7-7-7-7--7-7-7-7-9--9-9-9-9--9--11--12---------|

D#|---------------------------------------------------------------------------|
A#|---------------------------------------------------------------------------|
F#|---------------------------------------------------------------------------|
C#|-7--7-7-7--7--9--11--------------------------------------------------------|
G#|-7--7-7-7--7--9--11--------------------------------------------------------|
C#|-7--7-7-7--7--9--11--------------------------------------------------------|

Guitar 2 (1:28)
Repeat x2
D#|-------------9-10-10---9--9-10-12------------------------------------------|
A#|----8-10-10----------------------------------------------------------------|
F#|-7-------------------------------------------------------------------------|
C#|---------------------------------------------------------------------------|
G#|---------------------------------------------------------------------------|
C#|---------------------------------------------------------------------------|

Part 2 (1:37)
D#|---------------------------------------------------------------------------|
A#|---------------------------------------------------------------------------|
F#|---------------------------------------------------------------------------|
C#|-0--0-0-0-0-0--0-0-0-0-7--7-7-7-7-7--7-7-7-7-5--5-5-5-5--5--4--5-----------|
G#|-0--0-0-0-0-0--0-0-0-0-7--7-7-7-7-7--7-7-7-7-5--5-5-5-5--5--4--5-----------|
C#|-0--0-0-0-0-0--0-0-0-0-7--7-7-7-7-7--7-7-7-7-5--5-5-5-5--5--4--5-----------|

D#|---------------------------------------------------------------------------|
A#|---------------------------------------------------------------------------|
F#|---------------------------------------------------------------------------|
C#|-7--7-7-7--7--9--11--------------------------------------------------------|
G#|-7--7-7-7--7--9--11--------------------------------------------------------|
C#|-7--7-7-7--7--9--11--------------------------------------------------------|


The Heavy Bit
Part 1 (1:46)
D#|---------------------------------------------------------------------------|
A#|---------------------------------------------------------------------------|
F#|---------------------------------------------------------------------------|
C#|-0--0--15--0--10-9-10-12--0--0--15--0--3//10-------------------------------|
G#|-0--0--15--0--10-9-10-12--0--0--15--0--3//10---(x2)------------------------|
C#|-0--0--15--0--10-9-10-12--0--0--15--0--3//10-------------------------------|

Part 2 (1:53)
D#|---------------------------------------------------------------------------|
A#|---------------------------------------------------------------------------|
F#|---------------------------------------------------------------------------|
C#|-0-0-0-12-0-0-10-9-10-12-0-0-0-12-0-0-10-10/14---(x2)----------------------|
G#|---------------------------------------------------------------------------|
C#|---------------------------------------------------------------------------|

Then repeat part 1

Part 3 (2:00)
D#|---------------------------------------------------------------------------|
A#|---------------------------------------------------------------------------|
F#|---------------------------------------------------------------------------|
C#|-0--0--12--0--10-9-10-12--0--0--12--0--10//14------------------------------|
G#|-0--0--12--0--10-9-10-12--0--0--12--0--10//14---(x2)-----------------------|
C#|-0--0--12--0--10-9-10-12--0--0--12--0--10//14------------------------------|

Breakdown
Part 1 (2:15)
D#|---------------------------------------------------------------------------|
A#|-------------5--5--5--5----------------------------------------------------|
F#|-------------6--6--6--6----------------------------------------------------|
C#|-7--7--7--7--7--7--7--7----------------------------------------------------|
G#|-7--7--7--7--7--7--7--7----------------------------------------------------|
C#|-7--7--7--7--7--7--7--7----------------------------------------------------|


Part 2 (2:24)
D#|-----------0--------------------------------------0------0-0-0-0-----------|
A#|---------------------------------------------------------4-4-4-4-----------|
F#|-8-6-4-6-8---8---(x2)---8-6-4-6-8---4---8-6-4-6-8---8----4-4-4-4-----------|
C#|----------------------------------6----------------------------------------|
G#|---------------------------------------------------------------------------|
C#|---------------------------------------------------------------------------|

Part 3 (2:59)
D#|---------------------------------------------------------------------------|
A#|---------------------------------------------------------------------------|
F#|-8-6-4-6-8-9-8--(x2)--8-6-4-6-8---4---11-9-6-9--(x4)---6-----9--(x2)-------|
C#|--------------------------------6------------------------7-9---------------|
G#|---------------------------------------------------------------------------|
C#|---------------------------------------------------------------------------|

D#|---------------------------------------------------------------------------|
A#|---------------------------------------------------------------------------|
F#|-11-9-6-9--(x2)---6-----9-6br----------------------------------------------|
C#|--------------------7-9----------------------------------------------------|
G#|---------------------------------------------------------------------------|
C#|---------------------------------------------------------------------------|

Guitar 2 (2:59)
D#|---------------------------------------------------------------------------|
A#|---------------------------------------------------------------------------|
F#|---------------------------------------------------------------------------|
C#|-9------7------14------7------12------7------4------12------7------4-------|
G#|-9-(x8)-7-(x8)-14-(x8)-7-(x8)-12-(x8)-7-(x8)-4-(x8)-12-(x8)-7-(x8)-4-(x8)--|
C#|-9------7------14------7------12------7------4------12------7------4-------|


Repeat Chorus twice

Final Chords (4:09)
D#|---------------------------------------------------------------------------|
A#|---------------------------------------------------------------------------|
F#|---------------------------------------------------------------------------|
C#|-7/--7/--7\----------------------------------------------------------------|
G#|-7/--7/--7\----------------------------------------------------------------|
C#|-7/--7/--7\----------------------------------------------------------------|


************************************

| /   slide up
| \   slide down
| h   hammer-on
| p   pull-off
| ~   vibrato
| +   harmonic
| x   Mute note
| b   Bend
| pb  Pre-bend
| br  Bend release
| pbr Pre-bend release
| brb Bend release bend

************************************
Добавлено: 06.06.2012
Другие материалы по этой песне:
  • Аккорды и текст

Страница создана 06.06.2012
http://primanota.ru/biffy-clyro/toottoottoot-chords.htm
Привет, Гость.
Предлагаем пройти революционный курс по гитаре.
Подарок от PrimaNota.Ru, забирай!