PrimaNota.ru - самый крупный в мире бесплатный архив песенных текстов, аккордов, табулатур и нот


Biffy Clyro - Sky Demon - таба, видео

Регистрация Запомнить меня
Войти через:  Facebook Google Twitter Vk Yandex Mail.ru

Biffy Clyro - Sky Demon - таба, видео

Печатать
Просмотров: 270
Уроки эстрадного вокала в Санкт-Петербурге
Song: Sky Demon
Artist: Biffy Clyro
Album: Only Revolutions (Itunes Bonus Track)

Tabbed by David Newton

Tuning CGCFAD

Key

5{ = Natural Harmonic

   Intro

D |------------|------------|------------|------------|
A |------------|------5{5{5{|------5{5{5{|------5{5{5{|
F |------------|------------|------------|------------|
C |8-8-8-101010|3---3-3-3-3-|3---3-3-3-3-|3---3-3-3-3-|
G |8-8-8-101010|3---3-3-3-3-|3---3-3-3-3-|3---3-3-3-3-|
C |8-8-8-101010|3---3-3-3-3-|3---3-3-3-3-|3---3-3-3-3-| × 2

D |------------|
A |------------|
F |------------|
C |8-8-8-101010|
G |8-8-8-101010|
C |8-8-8-101010|


Pre Verse

   Clean              Dist
D |------------|------------|------------|------------|
A |------8-----|------------|------8--s10|8-----8-----|
F |----------7-|------------|------------|------------|
C |------------|------5/125-|5---5-------|------------|
G |------------|------5/125-|5---5-------|------------|
C |5---5-------|------5/125-|5---5-------|------------|

D |------------|------------|------------|------------|
A |------8-----|------------|------8---10|8-----8-----|
F |----------7-|------------|------------|------------|
C |5-5-5-------|------------|5-5-5-------|------------|
G |5-5-5-------|------------|5-5-5-------|------------|
C |5-5-5-------|------------|5-5-5-------|------------|


Verse

D |------------|------------|------------|------------|
A |------8-----|------------|------8---10|8-----8-----|
F |----------7-|------------|------------|------------|
C |5-5-5-------|------------|5-5-5-------|------------|
G |5-5-5-------|------------|5-5-5-------|------------|
C |5-5-5-------|------------|5-5-5-------|------------|


D |------------|------------|------------|------------|
A |------11----|------------|------11--13|11----11----|
F |----------10|------------|------------|------------|
C |8-8-8-------|------------|8-8-8-------|------------|
G |8-8-8-------|------------|8-8-8-------|------------|
C |8-8-8-------|------------|8-8-8-------|------------|


D |------------|------------|------------|------------|
A |------6-----|------------|------6---8/|6-----6-----|
F |----------5-|------------|------------|------------|
C |3-3-3-------|------------|3-3-3-------|------------|
G |3-3-3-------|------------|3-3-3-------|------------|
C |3-3-3-------|------------|3-3-3-------|------------|


D |------------|------------|------------|------------|
A |------8-----|------------|------8---10|8-----8-----|
F |----------7-|------------|------------|------------|
C |5-5-5-------|------------|5-5-5-------|------------|
G |5-5-5-------|------------|5-5-5-------|------------|
C |5-5-5-------|------------|5-5-5-------|------------|

Repeat Verse

   Pre Chorus
D |------------|------------|------------|------------|
A |------3-----|------------|------3---5/|3-----3-----|
F |----------3-|------------|------------|------------|
C |1-1-1-------|------------|3-3-3-------|------------|
G |1-1-1-------|------------|3-3-3-------|------------|
C |1-1-1-------|------------|3-3-3-------|------------|


D |------------|------------|------------|------------|
A |------8-----|------------|------11--13|11----11----|
F |----------7-|------------|------------|------------|
C |5-5-5-------|------------|8-8-8-------|------------|
G |5-5-5-------|------------|8-8-8-------|------------|
C |5-5-5-------|------------|8-8-8-------|------------|


D |------------|------------|------------|------------|
A |------3-----|------------|------3---5/|3-----3-----|
F |----------3-|------------|------------|------------|
C |1-1-1-------|------------|3-3-3-------|------------|
G |1-1-1-------|------------|3-3-3-------|------------|
C |1-1-1-------|------------|3-3-3-------|------------|


D |------------|------------|------------|------------|
A |------------|------------|------------|------------|
F |------------|------------|------------|------------|
C |0---0---0---|0---0---0---|0---0---0---|0---0---0---|
G |0---0---0---|0---0---0---|0---0---0---|0---0---0---|
C |0---0---0---|0---0---0---|0---0---0---|0---0---0---|


   Chorus
D |------------|------------|------------|------------|
A |------------|------------|------------|------------|
F |------------|------------|------------|------------|
C |5-5-5-5-5-5-|5-5-5-5-5-5-|5-5-5-5-5-5-|5-5-5-5-5-5-|
G |5-5-5-5-5-5-|5-5-5-5-5-5-|5-5-5-5-5-5-|5-5-5-5-5-5-|
C |5-5-5-5-5-5-|5-5-5-5-5-5-|5-5-5-5-5-5-|5-5-5-5-5-5-|


D |------------|------------|------------|------------|
A |------------|------------|------------|------------|
F |------------|------------|------------|------------|
C |5-5-5-5-5-5-|5-5-5-5-5-5-|5-5-5-5-5-5-|5-5-5-5-5-5-|
G |5-5-5-5-5-5-|5-5-5-5-5-5-|5-5-5-5-5-5-|5-5-5-5-5-5-|
C |5-5-5-5-5-5-|5-5-5-5-5-5-|5-5-5-5-5-5-|5-5-5-5-5-5-|


D |------------|------------|------------|------------|
A |------------|------------|------------|------------|
F |------------|------------|------------|------------|
C |0-0-0-0-0-0-|0-0-0-0-0-0-|0-0-0-0-0-0-|0-0-0-0-0-0-|
G |0-0-0-0-0-0-|0-0-0-0-0-0-|0-0-0-0-0-0-|0-0-0-0-0-0-|
C |0-0-0-0-0-0-|0-0-0-0-0-0-|0-0-0-0-0-0-|0-0-0-0-0-0-|


D |------------|------------|------------|------------|
A |------------|------------|------------|------------|
F |------------|------------|------------|------------|
C |2-----2-----|2-----2---10|----1010--10|10--1010----|
G |2-----2-----|2-----2---10|----1010--10|10--1010----|
C |2-----2-----|2-----2---10|----1010--10|10--1010----|

   Pre Verse 2

D |------------|------------|------------|------------|
A |------8-----|------------|------------|------------|
F |----------7-|------7-----|7-----------|------------|
C |5-5-5-------|----------8-|----8-------|------------|
G |5-5-5-------|------------|--------6---|8-----------|
C |5-5-5-------|------------|------------|------------|

Repeat Verse ×2, Pre Chorus and Chorus ×2

   Mid 8
D |------------|------------|------------|------------|
A |------------|------------|------------|------------|
F |------------|------------|------------|------------|
C |8-8-8-101010|3-3-3-5---5-|----5-5---5-|5---5-5-----|
G |8-8-8-101010|3-3-3-5---5-|----5-5---5-|5---5-5-----|
C |8-8-8-101010|3-3-3-5---5-|----5-5---5-|5---5-5-----|


D |------------|------------|------------|------------|
A |------------|------------|------------|------------|
F |------------|------------|------------|------------|
C |8-8-8-101010|3-3-3-5---5-|----5-5---5-|5---5-5-----|
G |8-8-8-101010|3-3-3-5---5-|----5-5---5-|5---5-5-----|
C |8-8-8-101010|3-3-3-5---5-|----5-5---5-|5---5-5-----|


D |------------|------------|------------|------------|
A |------------|------------|------------|------------|
F |------------|------------|------------|------------|
C |8-8-8-101010|3-3-3-0---0-|----0-0---0-|0---0-0-----|
G |8-8-8-101010|3-3-3-0---0-|----0-0---0-|0---0-0-----|
C |8-8-8-101010|3-3-3-0---0-|----0-0---0-|0---0-0-----|


D |------------|------------|------------|------------|
A |------------|------------|------------|------------|
F |------------|------------|------------|------------|
C |2-----2-----|2-----2---10|----1010--10|10--1010----|
G |2-----2-----|2-----2---10|----1010--10|10--1010----|
C |2-----2-----|2-----2---10|----1010--10|10--1010----|

   Solo
   G                                      Bb    C
D |------------|------------|------------|------------|
A |------------|------------|------------|------------|
F |120-0-0---0-|120-0-0---0-|120-0-0---0-|150-0-140-0-|
C |------------|------------|------------|------------|
G |------------|------------|------------|------------|
C |------------|------------|------------|------------|

   G                                      Bb    C
D |------------|------------|------------|------------|
A |------------|------------|------------|------------|
F |120-0-0---0-|120-0-0---0-|120-0-0---0-|100-0-9-0-0-|
C |------------|------------|------------|------------|
G |------------|------------|------------|------------|
C |------------|------------|------------|------------|

   G                                      Bb    C
D |------------|------------|------------|------------|
A |------------|------------|------------|------------|
F |120-0-0---0-|120-0-0---0-|120-0-0---0-|150-0-140-0-|
C |------------|------------|------------|------------|
G |------------|------------|------------|------------|
C |------------|------------|------------|------------|

   G                         NC
D |------------|------------|------------|------------|
A |------------|------------|3---3-------|------------|
F |120-0-0---0-|120-0-0---0-|0---0-------|------------|
C |------------|------------|------------|------------|
G |------------|------------|------------|------------|
C |------------|------------|------------|------------|

   Bridge
D |------------|------------|------------|------------|
A |------------|------------|------------|------------|
F |------------|------------|------------|------------|
C |12--0-----0-|12--0-----0-|12--0-----0-|131313151515|
G |12--0-----0-|12--0-----0-|12--0-----0-|131313151515|
C |12--0-----0-|12--0-----0-|12--0-----0-|131313151515|


D |------------|------------|------------|------------|
A |------------|------------|------------|------------|
F |------------|------------|------------|------------|
C |12--0-----0-|12--0-----0-|12--0-----0-|131313151515|
G |12--0-----0-|12--0-----0-|12--0-----0-|131313151515|
C |12--0-----0-|12--0-----0-|12--0-----0-|131313151515|


D |------------|------------|------------|------------|
A |------------|------------|------------|------------|
F |------------|------------|------------|------------|
C |12--0-----0-|12--0-----0-|12--0-----0-|131313151515|
G |12--0-----0-|12--0-----0-|12--0-----0-|131313151515|
C |12--0-----0-|12--0-----0-|12--0-----0-|131313151515|


D |------------|------------|------------|------------|
A |------------|------------|------------|------------|
F |------------|------------|------------|------------|
C |12--0-----0-|12--0-----0-|12--0-----0-|1313133---5-|
G |12--0-----0-|12--0-----0-|12--0-----0-|1313133---5-|
C |12--0-----0-|12--0-----0-|12--0-----0-|1313133---5-|

   Bridge 2
D |------------|------------|------------|------------|
A |------------|------------|------------|------------|
F |------------|------------|------------|------------|
C |----5-5---5-|5---5-3---5-|----5-5---5-|5---5-3---5-|
G |----5-5---5-|5---5-3---5-|----5-5---5-|5---5-3---5-|
C |----5-5---5-|5---5-3---5-|----5-5---5-|5---5-3---5-|


D |------------|------------|------------|------------|
A |------------|------------|------------|------------|
F |------------|------------|------------|------------|
C |----5-5---5-|5---5-3---5-|----5-5---5-|5-5-5-5-5-5-|
G |----5-5---5-|5---5-3---5-|----5-5---5-|5-5-5-5-5-5-|
C |----5-5---5-|5---5-3---5-|----5-5---5-|5-5-5-5-5-5-|

Repeat Pre Chorus


   Chorus
D |------|------|------|------|------|------|------|------|
A |------|------|------|------|------|------|------|------|
F |------|------|------|------|------|------|------|------|
C |5-----|------|------|------|5-----|------|------|------|
G |5-----|------|------|------|5-----|------|------|------|
C |5-----|------|------|------|5-----|------|------|------|

   clean
D |------|------|------|------|
A |------|------|------|------|
F |2-----|------|------|------|
C |0-----|------|------|------|
G |------|------|------|------|
C |------|------|------|------|


D |------------|------------|------------|------------|
A |------------|------------|------------|------------|
F |------------|------------|------------|------------|
C |2-----2-----|2-----2---10|----1010--10|10--1010----|
G |2-----2-----|2-----2---10|----1010--10|10--1010----|
C |2-----2-----|2-----2---10|----1010--10|10--1010----|

   Outro
D |------------|------------|------------|------------|
A |------------|------------|------------|------------|
F |------------|------------|------------|------------|
C |8-8-8-101010|3-3-3-5---5-|------------|5-----------|
G |8-8-8-101010|3-3-3-5---5-|------------|5-----------|
C |8-8-8-101010|3-3-3-5---5-|------------|5-----------|
Добавлено: 21.06.2012
Другие материалы по этой песне:
  • Аккорды и текст

Страница создана 21.06.2012
http://primanota.ru/biffy-clyro/sky-demon-chords.htm
Привет, Гость.
Предлагаем пройти революционный курс по гитаре.
Подарок от PrimaNota.Ru, забирай!