PrimaNota.ru - самый крупный в мире бесплатный архив песенных текстов, аккордов, табулатур и нот


Biffy Clyro - The Houses Of Roofs - текст песни, бас-таба, видео

Регистрация Запомнить меня
Войти через:  Facebook Google Twitter Vk Yandex Mail.ru

Biffy Clyro - The Houses Of Roofs - текст песни, бас-таба, видео

Печатать
Просмотров: 199
Уроки эстрадного вокала в Санкт-Петербурге
Song: The Houses Of Roofs
Artist: Biffy Clyro

Drop D Tuning

G|-----------------------------------------|
D|----9---99---9---999---9---99---9---999--|
A|--7---7----7---7-----7---7----7---7------|
D|-----------------------------------------|

G|-----------------------------------------|
D|----5---55---5---555---5---55---5---555--|
A|--3---3----3---3-----3---3----3---3------|
D|-----------------------------------------|

G|-----------------------------------------|
D|----9---99---9---999---9---99---9---999--|
A|--7---7----7---7-----7---7----7---7------|
D|-----------------------------------------|

G|-----------------------------------------|
D|----5---55---5---555---5---55---5---555--|
A|--3---3----3---3-----3---3----3---3------|
D|-----------------------------------------|

G|-----------------------------------------|
D|----9---99---9---999---9---99---9---999--|
A|--7---7----7---7-----7---7----7---7------|
D|-----------------------------------------|

G|-----------------------------------------|
D|----5---55---5---555---5---55---5---555--|
A|--3---3----3---3-----3---3----3---3------|
D|-----------------------------------------|

G|----------------------------|
D|----------------------------|
A|--7~---9-10--3~-3~-3~-3323--|
D|----------------------------|

G|------------------------------------|
D|------------------------------------|
A|--7--7--7-777~--3~--3~--3~-333~--|
D|------------------------------------|  x 2

REST

G|-------------|
D|-------------|
A|-------------|
D|--7-77-00--|

G|-------------------------(Read as 10's)-------------|
D|----------------------------------------------------|
A|----------------------------------------------------|
D|--7-77-00--7-77-00--3-33/10-1010--3-33/10-1010--|  x 3

G|------------------------(Read as 10's)--------|
D|----------------------------------------------|
A|----------------------------------------------|
D|--7-77-00--7-77-00--3-33/10-1010--0-0000--|

G|-----------------------------------------------------|
D|-----------------------------------------------------|
A|-----------------------------------------------------|
D|--10-9---0-10-9---0-10-9---0-10-9---0-10-9---0-10-9--|

G|-----------------------------------------|
D|----2---22---2---222---5---55---5---555--|
A|--0---0----0---0-----3---3----3---3------|
D|-----------------------------------------|

G|-----------------------------------------|
D|----9---99---9---999---9---99---9---999--|
A|--7---7----7---7-----7---7----7---7------|
D|-----------------------------------------|

G|-----------------------------------------|
D|----5---55---5---555---5---55---5---555--|
A|--3---3----3---3-----3---3----3---3------|
D|-----------------------------------------|

G|-----------------------------------------|
D|----9---99---9---999---9---99---9---999--|
A|--7---7----7---7-----7---7----7---7------|
D|-----------------------------------------|

G|-----------------------------------------|
D|----5---55---5---555---5---55---5---555--|
A|--3---3----3---3-----3---3----3---3------|
D|-----------------------------------------|

G|--------------------------------------|
D|--------------------------------------|
A|--7~--7~--7~--9-10--3~--3~--3~--333~--|
D|--------------------------------------|

G|------------------------------------|
D|------------------------------------|
A|--7--7--7-777~--3~--3~--3~-333~--|
D|------------------------------------|  x 2

REST

G|-------------------------(Read as 10's)-------------|
D|----------------------------------------------------|
A|----------------------------------------------------|
D|--7-77-00--7-77-00--3-33/10-1010--3-33/10-1010--|  x 3

G|------------------------(Read as 10's)--------|
D|----------------------------------------------|
A|----------------------------------------------|
D|--7-77-00--7-77-00--3-33/10-1010--0-0000--|

G|-----------------------------------------------|
D|-----------------------------------------------|
A|-----------------------------------------------|
D|--10-9---0-10-9---0-10-9---0-10-9-5-5-33-3333--|

G|-------------------------------------|
D|-------------------------------------|
A|-------------------------------------|
D|--5-555-555-555-55-3-333-333-333-33--|  x 2

G|---------------------(Read as 10's)-------------|
D|------------------------------------------------|
A|------------------------------------------------|
D|--7-777-777-777-9-10-101010-101010-101010-1010--|

G|-------------------------------(Read as 10's)--------|
D|-----------------------------------------------------|
A|-----------------------------------------------------|
D|--5-555-555-555-7--3-333-33/10-101010-101010-101010--|

G|---------------------|
D|---------------------|
A|---------------------|
D|--0-000-000-000-/10--|  x 4

G|--------------|
D|--------------|
A|--------------|
D|--0-0-00-/10--|  x 8

G|------|
D|------|
A|------|
D|--0~--|

Enjoy!
Добавлено: 06.04.2012
Другие материалы по этой песне:
  • Аккорды и текст

Страница создана 06.04.2012
http://primanota.ru/biffy-clyro/the-houses-of-roofs-chords.htm
Привет, Гость.
Предлагаем пройти революционный курс по гитаре.
Подарок от PrimaNota.Ru, забирай!