PrimaNota.ru - самый крупный в мире бесплатный архив песенных текстов, аккордов, табулатур и нот


Biffy Clyro - Pause It And Turn It Up - текст песни, таба, бас-таба, видео

Регистрация Запомнить меня
Войти через:  Facebook Google Twitter Vk Yandex Mail.ru

Biffy Clyro - Pause It And Turn It Up - текст песни, таба, бас-таба, видео

Печатать
Просмотров: 151
-------------------------------------------------------------------------------
                 PAUSE IT AND TURN IT UP - Biffy Clyro
-------------------------------------------------------------------------------
Tabbed by: merkinball15
E-mail:

Tuning: Drop B

Intro/Verse:
C#|---------------------------------------------------------------------------|
G#|----------------------13---------------------------------------------------|
 E|------------------10-------14----------------------------------------------|
 B|--------------10-----------12----------------------------------------------|  x4
F#|---------------------------12----------------------------------------------|
 B|----0--8--10---------------0-----------------------------------------------|


Verse Fills:
C#|----0~-0~-0~0~-0~0~-0~0~-0~0~-0~-------------------------------------------|
G#|----10/8--8/6--6/5--5/3--3/5--5--------------------------------------------|
 E|---------------------------------------------------------------------------|
 B|---------------------------------------------------------------------------| played on the 
F#|---------------------------------------------------------------------------| 3rd run-through
 B|---------------------------------------------------------------------------| of the verse

C#|---------------------------------------------------------------------------|
G#|--------10--11--13--11--10------10--11--13--11--10-------------------------|
 E|----12----------------------12---------------------------------------------|
 B|---------------------------------------------------------------------------| played on the
F#|---------------------------------------------------------------------------| 4th run-through
 B|---------------------------------------------------------------------------| of the verse


Chorus:
C#|--------------------------------------------------------------------------|
G#|----8-8--1010/-------15-------15----------15-------------------------------|
 E|----7-7--9-9-/-------14-------14----------14-------------------------------|
 B|----5-5--7-7-/-0~----12----00-12----00--0-12-------------------------------|  x2  
F#|----5-5--7-7-/-0~----------00-------00--0----------------------------------|
 B|----5-5--7-7-/-0~----------00-------00--0----------------------------------|

Verse x4
Chorus x4

Outro:
C#|---------------------------------------------------------------------------| not sure how
G#|----13------10-----11-----8------------------------------------------------| many times this
 E|----10------7------10-----7------------------------------------------------| is played, just 
 B|----10-x8---7-x8---8-x8---5-x8---------------------------------------------| listen to the
F#|----10------7------8------5------------------------------------------------| song 
 B|----10------7------8------5------------------------------------------------|

C#|---------------------------------------------------------------------------|
G#|----13~----15-\-10~----6-/-11~----13-\-8~----6/---repeat-------------------|
 E|---------------------------------------------------------------------------|
 B|---------------------------------------------------------------------------| 2nd Guitar w/
F#|---------------------------------------------------------------------------| Delay on
 B|---------------------------------------------------------------------------|

 Enjoy!



| /  slide up
| \  slide down
| h  hammer-on
| p  pull-off
| ~  vibrato
| +  harmonic
| x  Mute note
Добавлено: 13.07.2013
Другие материалы по этой песне:
  • Аккорды и текст

Страница создана 07.03.2012
http://primanota.ru/biffy-clyro/pause-it-and-turn-it-up-chords.htm
Привет, Гость.
Предлагаем пройти революционный курс по гитаре.
Подарок от PrimaNota.Ru, забирай!