PrimaNota.ru - самый крупный в мире бесплатный архив песенных текстов, аккордов, табулатур и нот


Biffy Clyro - Prey Hey - таба, видео

Регистрация Запомнить меня
Войти через:  Facebook Google Twitter Vk Yandex Mail.ru

Biffy Clyro - Prey Hey - таба, видео

Печатать
Просмотров: 185
Intro/Verse

E -----------1------------------4----------------1--------|
B ---------4---4------------------1------------4---4------|
G -------1--------------------1-----1--------0------------|
D --------------------------3--------------3--------------|
A -----3------------------4-------------------------------|
D ---3-----------------------------------1----------------|

E -----------1------------------------------------------|
B ---------4----------------------------------5---------|
G -------1-----0----------------------------5-----------|
D --------------------------8-10-8--------5-------------|
A -----3------------------6--------6----3---------------|
D ---3------------------6-------------------------------|

Chord going into Chorus

E -------|
B ---5---|
G ---5---|
D ---5---|
A ---3---|
D -------|

Chorus Chords - Easy to work out the strumming pattern

E ---1-------0-----------1-------0--------|
B ---1-------5-/6\5------1-------5--/6/8--|
G ---3-------5-----------3-------5--------| (this isnt completely accurate but
D ---3-------5-----------3-------5--------|   does seem to work)
A ---1-------3-----------1-------3--/5/7--|
D ----------------------------------------|



Break

E -------------------------------------|
B -------------------------------------|
G -------------------------------------|    X 2
D ----0---0----0---0---0---0---0---0---|
A ---0---0----0---0---0---0---0---0----|
D --3---3----1---1---0---0---0---0-----|


E ----------------------------------------------------------------------------|
B ----------------------------------------------------------------------------|
G ---5--x------------5-5--x-------------5--x------------5-5--x----------------|
D ---5--x-5-6-5--5---5-5--x--5-6-5--5---5--x-5-6-5--5---5-5--x--5-6-5--1---1--|   X 2
A ---3--x-5-6-5--5---3-3--x--5-6-5--5---3--x-5-6-5--5---3-3--x--5-6-5--1---1--|
D ------- 5-6-5--5-----------5-6-5--5------- 5-6-5--5-----------5-6-5--1---1--|



End Riff Thing

Repeat all four bits twice

E ---------------      E ---------------      E ---------------      E ---------------|
B ---8--6--5--6--      B ---8--6--5--6--      B ---8--6--5--6--      B ---8--6--5--6--|
G ---5--5--5--5-- X 2  G ---x--x--x--x-- X 2  G ---5--5--5--5-- X 2  G ---x--x--x--x--| 
X 2
D ---3--3--3--3--      D ---5--5--5--5--      D ---5--5--5--5--      D ---5--5--5--5--|
A ---3--3--3--3--      A ---4--4--4--4--      A ---5--5--5--5--      A ---4--4--4--4--|
D ---3--3--3--3--      D ---------------      D ---0--0--0--0--      D ---------------|


Outro

E -----------------------------------------|
B -----------------------------------------|
G -----------------------------------------|
D ---8-8-8-8---8-8-8-8---8-8-8-8---8-8-8---|
A ---8-8-8-8---8-8-8-8---8-8-8-8---8-8-8---|
D ---8-8-8-8---8-8-8-8---8-8-8-8---8-8-8---|
Добавлено: 31.07.2012
Другие материалы по этой песне:
  • Аккорды и текст

Страница создана 31.07.2012
http://primanota.ru/biffy-clyro/prey-hey-chords.htm
Привет, Гость.
Предлагаем пройти революционный курс по гитаре.
Подарок от PrimaNota.Ru, забирай!