PrimaNota.ru - самый крупный в мире бесплатный архив песенных текстов, аккордов, табулатур и нот


Biffy Clyro - Eyelids - таба, видео

Регистрация Запомнить меня
Войти через:  Facebook Google Twitter Vk Yandex Mail.ru

Biffy Clyro - Eyelids - таба, видео

Печатать
Просмотров: 117
EYELIDS-BIFFY CLYRO

B-SIDE ONLY REVOLUTIONS


tabbed by : plasticman


DROP D


VERSE
                                                   
E|-------------------------------------------------------------|
B|-------------------------------------------------------------|
G|--55/77/99--9---55/777/---------55/777/2--2---5---55/77/99--9|
D|--55/77/99--9---55/777/222--2---55/777/2--2---5---55/77/99--9|X2
A|--33/55/77--7---33/555/222--2---33/555/0--0---3---33/55/77--7|
D|-----------------------222--2--------------------------------|


PRECHORUS
          
E|-------|
B|-8-----|
G|-7-----|
D|-5-----|
A|-x-----|
D|-x-----|


CHORUS
                                                             
E|-------------|--|-------------|--|----|-------------------|
B|-------------|--|-------------|--|----|-------------------|
G|-5/7/99999999|--|-5/7/77777777|--|5/7/|55555555-7777-7777-|
D|-5/7/99999999|X2|-5/7/55555555|X2|5/7/|55555555-5555-7777-|X2
A|-3/5/77777777|--|-3/5/55555555|--|3/5/|33333333-5555-5555-|
D|-------------|--|-----55555555|--|----|---------5555------|

VERSE
IT'S THE SAME WITH THIS
                   
E|----------------|
B|----------------|
G|----------------|
D|---/10\9\7\5----|
A|----------------|
D|----------------|

PRECHORUS

CHORUS


BRIDGE
                                                        
E|-------|---------------------------------------------|
B|-------|---------------------------------------------|
G|-99999-|-99999-9/77-------------77-5--55555--5/77/99-|
D|-99999-|-99999-9/77-5--55555--5/77-5--55555--5/77/99-|x8
A|-77777-|-77777-7/5505--55555--5/5503--33333--3/55/77-|
D|-------|------------5--55555--5/---------------------|



outro
                                                           
E|--------------------------------------------------------|
B|--------------------------------------------------------|
G|-9---55/777----------55/777/2--2---5--5555555-----------|
D|-9---55/777/222--2---55/777/2--2---5--5555555-22-2-2-2--|
A|-7---33/555/222--2---33/555/0--0---3--3333333-22-2-2-2--|
D|------------222--2----------------------------22-2-2-2--|
Добавлено: 15.09.2013
Другие материалы по этой песне:
  • Аккорды и текст

Страница создана 15.09.2013
http://primanota.ru/biffy-clyro/eyelids-chords.htm
Привет, Гость.
Предлагаем пройти революционный курс по гитаре.
Подарок от PrimaNota.Ru, забирай!