PrimaNota.ru - самый крупный в мире бесплатный архив песенных текстов, аккордов, табулатур и нот


Biffy Clyro - Semi-Mental - текст песни, таба, видео

Регистрация Запомнить меня
Войти через:  Facebook Google Twitter Vk Yandex Mail.ru

Biffy Clyro - Semi-Mental - текст песни, таба, видео

Печатать
Просмотров: 38
Уроки эстрадного вокала в Санкт-Петербурге
-------------------------------------------------------------------------------
                             Semi-Mental Acoustic - Biffy Clyro
-------------------------------------------------------------------------------
Tabbed by: faceingkind
Video: https://www.youtube.com/watch?v=XjWxS42OP8o

Tuning: Drop C#
Intro:
e|-------------------------------------------------------------------------------------------|
B|-------------------------------------------------------------------------------------------|
G|--------------------2------------------------2---------------------------------------------|
D|---------0----------0-------------0----------0---------------------------------------------|
A|-0h-2h-3---3p-2-----0-----0h-2h-3---3p-2-----0---------------------------------------------|
E|-----------------0--0---------------------0--0---------------------------------------------|

Verse 1: I smoke my face in
e|-------------------------------------------------------------------------------------------|
B|-------------------------------------------------------------------------------------------|
G|--------------------2------------------------2---------------------------------------------|
D|---------0----------0-------------0----------0---------------------------------------------|
A|-0h-2h-3---3p-2-----0-----0h-2h-3---3p-2-----0---------------------------------------------|
E|-----------------0--0---------------------0--0---------------------------------------------|

e|-------------------------------------------------------------------------------------------|
B|-------------------------------------------------------------------------------------------|
G|--------------------2------------------------2---------------------------------------------|
D|---------0----------0-------------0----------0-------------0-------------------------------|
A|-0h-2h-3---3p-2-----0-----0h-2h-3---3p-2-----0-----0h-2h-3---3p-2--------------------------|
E|-----------------0--0---------------------0--0---------------------------------------------|

But how was I to know
e|-------------------------------------------------------------------------------------------|
B|------------------1----1-----1-----3----3--------------------------------------------------|
G|---2----0----0--2------0-2h--2-----0----0--------------------------------------------------|
D|-3----5----2----2------3-----3-----0----0--------------------------------------------------|
A|-3----5----2----0------x-----x-----x----x--------------------------------------------------|
E|-3----5----2-----------3-----3-----3----3--------------------------------------------------|

Chorus: You shone a light...
e|----------------------------------------------------------------------------------------|
B|-0------10------5--------------------0------10------5--------------------------------------|
G|-5------9-------5--------------------5------9-------5--------------------------------------|
D|-7------10------7------7-------------7------10------7------7-------------------------------|
A|-5------8-------0------5-------------5------8-------0------5-------------------------------|
E|-----------------------5-----------------------------------5-------------------------------|

e|-------------------------------------------------------------------------------------------|
B|-------------------------------------------------------------------------------------------|
G|---2----------------------2------------------------2---------------------------------------|
D|---0-----------0----------0-------------0----------0---------------------------------------|
A|---0---0h-2h-3---3p-2-----0-----0h-2h-3---3p-2-----0---------------------------------------|
E|-0-0-------------------0--0---------------------0--0---------------------------------------|

Verse 2: I'm not a drinker...
e|-------------------------------------------------------------------------------------------|
B|-------------------------------------------------------------------------------------------|
G|--------------------2------------------------2------------------------2--------------------|
D|---------0----------0-------------0----------0-------------0----------0----------0---------|
A|-0h-2h-3---3p-2-----0-----0h-2h-3---3p-2-----0-----0h-2h-3---3p-2-----0--0h-2h-3---3p-2----|
E|-----------------0--0---------------------0--0---------------------0--0--------------------|

But I will climb...
e|-------------------------------------------------------------------------------------------|
B|------------------1----1-----1-----1-----1-----3----3--------------------------------------|
G|---2----0----0--2------0-2h--2-----0-2h--2-----0----0--------------------------------------|
D|-3----5----2----2------3-----3-----3-----3-----0----0--------------------------------------|
A|-3----5----2----0------x-----x-----x-----x-----x----x--------------------------------------|
E|-3----5----2-----------3-----3-----3-----3-----3----3--------------------------------------|

Chorus: You shone a light...
e|-------------------------------------------------------------------------------------------|
B|-0------10------5--------------------0------10------5--------------------------------------|
G|-5------9-------5--------------------5------9-------5--------------------------------------|
D|-7------10------7------7-------------7------10------7------7-------------------------------|
A|-5------8-------0------5-------------5------8-------0------5-------------------------------|
E|-----------------------5-----------------------------------5-------------------------------|

e|-0-----------------------------------------------------------------------------------------|
B|-0------10------5--------------------0------10------5--------------------------------------|
G|-5------9-------5--------------------5------9-------5--------------------------------------|
D|-x------10------7------7-------------7------10------7------7-------------------------------|
A|-5------8-------0------5-------------5------8-------0------5-------------------------------|
E|-----------------------5-----------------------------------5-------------------------------|

You have tried to resist...
e|-------------------------------------------------------------------------------------------|
B|-------------------------------------------------------------------------------------------|
G|-------2-----------------2--------------------0---------------0----------------------------|
D|---2-------2---2-----2-------2----2-------5-------5---3---5-------5---5--------------------| x2
A|-0---0---0---0-----4---4---4---4--------5---5---5---5---5---5---5---5----------------------|
E|-------------------------------------------------------------------------------------------|

e|-------------------------------------------------------------------------------------------|
B|-------------------------------------------------------------------------------------------|
G|-------0-----------------0--------------7--7--5--5-----------------------------------------|
D|----------------------------------------3--3--3--3-----------------------------------------| x2
A|---7-------7---7-----7-------7---7------3--3--3--3-----------------------------------------|
E|-5---5---5---5-----5---5---5---5--------3--3--3--3-----------------------------------------|

Solo:
e|-------------------------------------------------------------------------------------------|
B|----------------------------3p-0----------------------------------3p-0---------------------|
G|-----5p-4-0--------------------------------5p-4-0------------------------------------------|
D|-----------------3p-2p-0-------------------------------3p-2p-0-----------------------------|
A|-0-0---------0-0----------0------------0-0---------0-0----------0--------------------------|
E|-------------------------------------------------------------------------------------------|

e|----------------------------3p-0-----------------------------3p-0--------------------------|
B|-----6p-5-0---------------------------6p-5-0-----------------------------------------------|
G|-----------------5p-4p-0--------------------------5p-4p-0----------------------------------|
D|-------------------------------------------------------------------------------------------|
A|-0-0---------0-0----------0-------0-0---------0-0----------0-------------------------------|
E|-------------------------------------------------------------------------------------------|

e|-------------------------------------------------------------------------------------------|
B|-------------------------------------------------------------------------------------------|
G|-----5p-4-0-------------5p-4-0..---7-------------------------------------------------------|
D|--------------2--------------------5-------------------------------------------------------| x2
A|-0-0----------2-x6-----------------5-x6----------------------------------------------------|
E|--------------2------0-0-----------5-------------------------------------------------------|

Chorus: You shone a light...
e|-------------------------------------------------------------------------------------------|
B|-0------10------5--------------------0------10------5--------------------------------------|
G|-5------9-------5--------------------5------9-------5--------------------------------------|
D|-7------10------7------7-------------7------10------7------7-------------------------------|
A|-5------8-------0------5-------------5------8-------0------5-------------------------------|
E|-----------------------5-----------------------------------5-------------------------------|

e|-0-----------------------------------------------------------------------------------------|
B|-0------10------5--------------------0------10------5--------------------------------------|
G|-5------9-------5--------------------5------9-------5--------------------2-----------------|
D|-x------10------7------7-------------7------10------7------7----------0--0-----------------|
A|-5------8-------0------5-------------5------8-------0------5----------0--0-----------------|
E|-----------------------5-----------------------------------5----------0--0-----------------|
************************************

| /   slide up
| \   slide down
| h   hammer-on
| p   pull-off
| ~   vibrato
| +   harmonic
| x   Mute note
| b   Bend
| pb  Pre-bend
| br  Bend release
| pbr Pre-bend release
| brb Bend release bend

************************************
Добавлено: 03.11.2017
Другие материалы по этой песне:
  • Аккорды и текст

Страница создана 18.08.2013
http://primanota.ru/biffy-clyro/semi-mental-2-chords.htm
Привет, Гость.
Предлагаем пройти революционный курс по гитаре.
Подарок от PrimaNota.Ru, забирай!