PrimaNota.ru - самый крупный в мире бесплатный архив песенных текстов, аккордов, табулатур и нот


Biffy Clyro - As Dust Dances - текст песни, таба, видео

Регистрация Запомнить меня
Войти через:  Facebook Google Twitter Vk Yandex Mail.ru

Biffy Clyro - As Dust Dances - текст песни, таба, видео

Печатать
Просмотров: 151
---------------------------------
         As Dust Dances
               -
          Biffy Clyro
---------------------------------

Tabbed by: Tom McPhee (tommcphee@gmail.com)

I've based the structure of this tab on this acoustic performance:
http://www.youtube.com/watch?v=81qKIKk67R0


Drop D tuning (DADGBE)


Intro / Verse
-------------
                D
e|---------------------------------------------------------------|
B|---------------------------------------------------------------|
G|---------------------------------------------------------------|
D|----9---0-0---0---0---0----9---0-0---0---0---0-0-0-------------|
A|-10---9---9---9---9---9-10---9---9---9---9---9-9---------------|
D|----------0-0-0-0-0-0-0----------0-0-0-0-0-0-0-0---------------|

      Theres a man on the corner   Selling dozens of bones
                            
                Bm7                                 (on last time)
e|-----------------------------------------------r-|-------------|
B|-----------------------------------------------e-|-------------|
G|-----------------------------------------------p-|-------------|
D|-2-4---0-0---0---0---0-2-4---0-0---0---0---0---e-|---0000000---|
A|-0---2---2-2-2-2-2-2-2-0---2---2-2-2-2-2-2-2-0-a-|---2222222---|
D|-----------------------------------------------t-|-------------|

           Every kind of bone    Except the one that I want.

Everything what your eyes do, you're trying to sleep
But where your tongue rests, is it against your teeth.

Chorus 
-------
(let chords ring)

        Em                   D                    Am
e|------7--------------------5-----------------------------------|
B|------8--------------------7-----------------------------------|
G|------9--------------------7--------------------7--------------|
D|------9--------------------7--------------------5--------------|
A|------7--------------------5--------------------5--------------|
D|------------------------------------------------5--------------|

   And now, it's bigger than us. Its bigger than everything

        Em                   D
e|------7--------------------5-----------------------------------|
B|------8--------------------7-----------------------------------|
G|------9--------------------7-----------------------------------|
D|------9--------------------7-----------------------------------|
A|------7--------------------5-----------------------------------|
D|---------------------------------------------------------------|

        It decides to touch.

Verse
-----

Asleep is the safest
place you could be
You can try hard to catch it
It just catches you
Imagine a camera
Coming up from your feet
Relax all your muscles son
Just hope your heart's in one piece

Chorus 
------

(strum all chords)

And now, it's bigger than us.
It's bigger than everything, it decides to touch. 

Post-chorus
-----------

                 Bm          C                    A
e|---------------2-----------3-----------------------------------|
B|---------------3-----------5-----------------------------------|
G|---------------4-----------5--------------------7--------------|
D|---------------4-----------5--------------------5--------------|
A|---------------2-----------3--------------------5--------------|
D|------------------------------------------------5--------------|

   Bigger than a halo       a devil               an angel
       
        Em                   D
e|------7--------------------5-----------------------------------|
B|------8--------------------7-----------------------------------|
G|------9--------------------7-----------------------------------|
D|------9--------------------7-----------------------------------|
A|------7--------------------5-----------------------------------|
D|---------------------------------------------------------------|

                    and a crow

Bridge
------

e|---------------------------------------------------------------|
B|---------------------------------------------------------------|
G|------11-----------------------11-------------11---------------|
D|------10-----------------------9--------------0----------------|
A|------10-----------------------9--------------9----------------|
D|------10-----------------------9--------------0----------------|

  Bones got the wrong detail   I hoped it would have

e|---------------------------------------------------------------|
B|---------------------------------------------------------------|
G|------11-----------------------11-------------11---------------|
D|------10-----------------------9--------------0----------------|
A|------10-----------------------9--------------9----------------|
D|------10-----------------------9--------------0----------------|

       Save for a shinbone or   even         a hand


Verse
------
(sounds the same as the intro, but its more chord based - strum
 all the chords, or vary the Bm7 by picking an arpeggio)

           D                           D
e|---------2---------------------------2-------------------------|
B|---------3---------------------------3-------------------------|
G|---4-----2---------------------4-----2-------------------------|
D|-5---4-0-0-------------------5---4-0-0-------------------------|
A|---------0---------------------------0-------------------------|
D|---------0---------------------------0-------------------------|

          Such a lonely ride           Such a lonely ride

           Bm7                         Bm7
e|---------2---------------------------2------------------------r|
B|---------3---------------------------3------------------------e|
G|---------2---------------------------2------------------------p|
D|-2-4-0-0-4-------------------2-4-0-0-4------------------------e|
A|-0---2---2-------------------0---2---2------------------------a|
D|--------------------------------------------------------------t|

          Such a lonely ride           Such a lonely ride


Chorus
------

And now, it's bigger than us.
It's bigger than everything, it decides to touch. 

Bridge
------

e|---------------------------------------------------------------|
B|---------------------------------------------------------------|
G|------11-----------------------11------------------------------|
D|------10-----------------------9-------------------------------|
A|------10-----------------------9-------------------------------|
D|------10-----------------------9-------------------------------|

  Bones got the wrong detail   I hoped it would have for you

e|---------------------------------------------------------------|
B|---------------------------------------------------------------|
G|------11-----------------------11-------------11---------------|
D|------10-----------------------9--------------0----------------|
A|------10-----------------------9--------------9----------------|
D|------10-----------------------9--------------0----------------|

       Save for a shinbone or   even         a hand

Outro/verse
-----
            D                      D
e|---------------------------------------------------------------|
B|---------------------------------------------------------------|
G|---------------------------------------------------------------|
D|----9---0-0---0---0---0----9---0-0---0---0---0-0-0-------------|
A|-10---9---9---9---9---9-10---9---9---9---9---9-9---------------|
D|----------0-0-0-0-0-0-0----------0-0-0-0-0-0-0-0---------------|

      Theres a man on the corner   Selling dozens of bones
                            
                Bm7              Bm7         (let ring)
e|---------------------------------------------------------------|
B|---------------------------------------------------------------|
G|---------------------------------------------------------------|
D|-2-4---0-0---0---0---0-2-4---0-0---0---0---0-------------------|
A|-0---2---2-2-2-2-2-2-2-0---2---2-2-2-2-2-2-2-------------------|
D|---------------------------------------------------------------|

           Every kind of bone    Except the one that I want.


Please post any corrections and rate/comment if you like, thanks!
tommcphee@gmail.com - 7th June 2007


Добавлено: 26.07.2013
Другие материалы по этой песне:
  • Аккорды и текст

Страница создана 26.07.2013
http://primanota.ru/biffy-clyro/as-dust-dances-chords.htm
Привет, Гость.
Предлагаем пройти революционный курс по гитаре.
Подарок от PrimaNota.Ru, забирай!