PrimaNota.ru - самый крупный в мире бесплатный архив песенных текстов, аккордов, табулатур и нот


Biffy Clyro - Mountain - бас-таба, видео

Регистрация Запомнить меня
Войти через:  Facebook Google Twitter Vk Yandex Mail.ru

Biffy Clyro - Mountain - бас-таба, видео

Печатать
Просмотров: 129
Song: Mountains (Acoustic)
Artist: Biffy Clyro

Tuning: Drop D

Play nothing in Intro, Verse 1, Pre-Chorus or Chorus 1

Then in Chorus 2 i.e. "You tear us apart" play...

G|------------|-----------|------------|-------------|
D|------------|-----------|------------|-------------|
A|--0----2----|--10----5--|--0----2----|--10----5----|
D|------------|-----------|------------|-------------|x2

Verse 2
G|--------------|--------------|
D|--------------|--------------|
A|--2--2--2--2--|--------------|
D|--------------|--5--5--5--5--|x2

Pre-Chorus
G|--------------|--------------|--------------|--------------------|
D|--------------|--------------|--------------|--------------------|
A|--------------|--------------|--------------|--------------------|
D|--7--7--7--7--|--9--9--9--9--|--7--7--7--7--|--9--9--9--11-11-11-|

Chorus 1
G|-----------------|-----------------|-----------------|
D|-----------------|-----------------|-----------------|
A|-----5--5--4-4-4-|-----5--5--4-4-4-|--2--2--2--4-4-4-|
D|--0--------------|--0--------------|-----------------|

G|-----------------|--------------|
D|-----------------|--------------|
A|-----5--5--4-4-4-|-----5--5--5--|
D|--0--------------|--0-----------|

Chorus 2
G|------------|-----------|------------|-------------|
D|------------|-----------|------------|-------------|
A|--0----2----|--10----5--|--0----2----|--10----5----|
D|------------|-----------|------------|-------------|x2

Guitar Solo
G|-------------------|-------------------|
D|-------------------|-------------------|
A|-------------------|-------------------|
D|--9-9-7-7-0-0-0-0--|--9-9-7-7-5-5-5-5--|

G|-------------------|-------------------|
D|-------------------|-------------------|
A|-------------------|-------------------|
D|--9-9-7-7-0-0-0-0--|--2-2-2-2-5-5-5-5--|

Bridge
G|------------------|--------------|--------------|--------------|
D|------------------|--------------|--------------|--------------|
A|------------------|--------------|--------------|--------------|
D|--9-9-7-7-0--0----|--5--5--0--0--|--7--7--0--0--|--5--5--2--2--|

G|------------------|--------------|--------------|---------------|
D|------------------|--------------|--------------|---------------|
A|------------------|--------------|--------------|---------------|
D|--9-9-7-7-0--0----|--5--5--0--0--|--7--7--0--0--|--5--5--4-4-4--|

Outro
G|-----------------|-----------------|-----------------|
D|-----------------|-----------------|-----------------|
A|-----5--5--4-4-4-|-----5--5--4-4-4-|--2--2--2--4-4-4-|
D|--0--------------|--0--------------|-----------------|

G|-----------|-----------|----------|
D|-----------|-----------|----------|
A|-----5--5--|-----5-5-5-|----------|
D|--0--------|--0--------|--0--0--0-|
Добавлено: 24.03.2012
Другие материалы по этой песне:
  • Аккорды и текст

Страница создана 24.03.2012
http://primanota.ru/biffy-clyro/mountain-chords.htm
Привет, Гость.
Предлагаем пройти революционный курс по гитаре.
Подарок от PrimaNota.Ru, забирай!