PrimaNota.ru - самый крупный в мире бесплатный архив песенных текстов, аккордов, табулатур и нот


Behemoth - Nephilim Rising - текст песни, таба, видео

Регистрация Запомнить меня
Войти через:  Facebook Google Twitter Vk Yandex Mail.ru

Behemoth - Nephilim Rising - текст песни, таба, видео

Печатать
Просмотров: 175
Part A (Play twice)

|-------------------------------------------------------------------|
|-------------------------------------------------------------------|
|-------------------------------------------------------------------|
|----<5>-<4>-------------<5>-<6>--------------<5>-<4>---------------|
|-2--<7>-<6>----------2--<7>-<8>----------2---<7>-<6>---------------|
|-0----------0-5-4-2--0----------0-5-4-2--0-----------0-5-4-2-------|

|---------------------------------|--Continue on second ending, as--|
|---------------------------------|--shown below--------------------|
|---------------------------------|---------------------------------|
|---------------------------------|---------------------------------|
|-2--------------2----------------|-2--------------2----------------|
|-0-5-5-2-2-4-4--0-5-5-2-2-4-4----|-0-5-5-2-2-4-4--0-5-5-2-2-4-4----|


Part B

|----------------------------------------------------|guitar 2 does--|
|----------------------------------------------------|-pick slide----|
|----------------------------------------------------|---------------|
|-------7---5---5---7---8---5---7--------11--10--5---|-7---8---5---7-|
|-2-----5---6---3---5---6---3---5--2-----9---8---3---|-5---6---3---5-|
|-0-0-0---0---0---0---0---0---0----0-0-0---0---0---0-|---0---0---0---|

Part C

|-------------------------------------------------------------------|
|-------------------------------------------------------------------|
|-------------------------------------------------------------------|
|-------7---5---5---7---8---5---------------------------------------|
|-2-----5---6---3---5---6---3----2ph~-------------------------------|
|-0-0-0---0---0---0---0---0---0-------------------------------------|

|-------------------------------------------------------------------|
|-------------------------------------------------------------------|
|----7 times--------4-------3----5/7--7--7/8------------------------|
|--/---------\----/----\---/-\--------------------------------------|
|-2-2-2-2-2-2-2--2-2-2-2--2-2-2--3/5--5--5/6------------------------|
|-0-0-0-0-0-0-0--0-0-0-0--0-0-0-------------------------------------|


Part D (Verse) play twice:

|-------------------------------------------------------------------|
|-------------------------------------------------------------------|
|-------------------------------------------------------------------|
|-------7----5----5----7----8----5----------------------------------|
|-2-----5----6----3----5----6----3----2ph~--------------------------|
|-0-0-0---0-0--0-0--0-0--0-0--0-0--0-0------------------------------|

|-------------------------------------------------------------------|
|-------------------------------------------------------------------|
|-------------------------------------------------------------------|
|-------11----10----5-----7-----8-----5-----7~----------------------|
|-2-----9-----8-----3-----5-----6-----3-----5~----------------------|
|-0-0-0---0-0---0-0---0-0---0-0---0-0---0-0-------------------------|

|-------------------------------------------------------------------|
|-------------------------------------------------------------------|
|-------------------------------------------------------------------|
|-------7----5----5----7----8----5----------------------------------|
|-2-----5----6----3----5----6----3----2ph~--------------------------|
|-0-0-0---0-0--0-0--0-0--0-0--0-0--0-0------------------------------|

|-------------------------------------------------------------------|
|-------------------------------------------------------------------|
|----7 times--------4-------3----5/7--7--7/8------------------------|
|--/---------\----/----\---/-\--------------------------------------|
|-2-2-2-2-2-2-2--2-2-2-2--2-2-2--3/5--5--5/6------------------------|
|-0-0-0-0-0-0-0--0-0-0-0--0-0-0-------------------------------------|

Then:

|-------------------------------------------------------------------|
|-------------------------------------------------------------------|
|----7 times--------4------2---11/10--10/7--------------------------|
|--/---------\----/----\--/-\---------------------------------------|
|-2-2-2-2-2-2-2--2-2-2-2--2-2---9/8----8/5--------------------------|
|-0-0-0-0-0-0-0--0-0-0-0--0-0---------------------------------------|


Part E (play twice):

|-------------------------------------------------------------------|
|-------------------------------------------------------------------|
|-------------------------------------------------------------------|
|--8----/---11-----------------8----/---11--------------------------|
|--8----/---11-----------------8----/---11----11-10--8-10--8-6------|
|--6----/---9----9-8-6-8ph~----6----/---9-----9--8---6-8---6-4------|

Then:

|-------------------------------------------------------------------|
|-------------------------------------------------------------------|
|-------------------------------------------------------------------|
|--8----/---11----------------------<11>---<10>---------------------|
|--8----/---11---<9>----<11>---<12>---------------<12>--------------|
|--6----/---9-------------------------------------------------------|

|-------------------------------------------------------------------|
|-------------------------------------------------------------------|
|-------------------------------------------------------------------|
|--8---/----11------------------------------------------------------|
|--8---/----11---<11>---<9>---<11>---<12>---<11>---<9>--------------|
|--6---/----9-------------------------------------------------------|

|-------------------------------------------------------------------|
|-------------------------------------------------------------------|
|-------------------------------------------------------------------|
|--8----/---11----------------------<11>---<10>---------------------|
|--8----/---11---<9>----<11>---<12>---------------<12>--------------|
|--6----/---9-------------------------------------------------------|

|-------------------------------------------------------------------|
|-------------------------------------------------------------------|
|-------------------------------------------------------------------|
|--8----/---11------------------------------------------------------|
|--8----/---11---11-9-11-12-11-9~-----------------------------------|
|--6----/---9-------------------------------------------------------|

Play Part E twice
Play Part B
Play Part C
Play Part D (verse) twice

Then:

|-------------------------------------------------------------------|
|---7 times---------4-------3---------------------------------------|
|--/--------\-----/---\----/-\---11/10-10/7--7----------------------|
|-------------------------------------------------------------------|
|-2-2-2-2-2-2-2--2-2-2-2--2-2-2---9/ 8-8/ 5--5----------------------|
|-0-0-0-0-0-0-0--0-0-0-0--0-0-0-------------------------------------|

|-------------------------------------------------------------------|
|-------------------------------------------------------------------|
|----7 times--------4-------3----5/7--7--7/8------------------------|
|--/---------\----/----\---/-\--------------------------------------|
|-2-2-2-2-2-2-2--2-2-2-2--2-2-2--3/5--5--5/6------------------------|
|-0-0-0-0-0-0-0--0-0-0-0--0-0-0-------------------------------------|

|-------------------------------------------------------------------|
|---7 times---------4-------3---------------------------------------|
|--/--------\-----/---\----/-\---11/10-10/7--7----------------------|
|-2-2-2-2-2-2-2--2-2-2-2--2-2-2-------------------------------------|
|-2-2-2-2-2-2-2--2-2-2-2--2-2-2---9/ 8-8/ 5--5----------------------|
|-0-0-0-0-0-0-0--0-0-0-0--0-0-0-------------------------------------|

Part F:

|-------------------------------------------------------------------|
|-------------------------------------------------------------------|
|-7-------7-------7-------7-8-5-8-------8-------8-------7-8-5-------|
|-------------------------------------------------------------------|
|-5-------5-------5-------5-6-3-6-------6-------6-------5-6-3-------|
|---0-0-0---0-0-0---0-0-0---------0-0-0---0-0-0---0-0-0-------------|

Part G (also to be played under solo):

|-------------------------------------------------------------------|
|-------------------------------------------------------------------|
|-------------------------------------------------------------------|
|-------------------------------------------------------------------|
|-2---------------------2----------9--10-7--------------------------|
|-0-0-0-0-0-[23232etc.]-0-0-0-0-0--7--8--5--------------------------|

END
dziękuję :P
Добавлено: 10.03.2012
Другие материалы по этой песне:

Страница создана 10.03.2012
http://primanota.ru/behemoth/nephilim-rising-chords.htm
Привет, Гость.
Предлагаем пройти революционный курс по гитаре.
Подарок от PrimaNota.Ru, забирай!