PrimaNota.ru - самый крупный в мире бесплатный архив песенных текстов, аккордов, табулатур и нот


Behemoth - Sculpting The Throne Ov Seth - текст песни, таба, видео

Регистрация Запомнить меня
Войти через:  Facebook Google Twitter Vk Yandex Mail.ru

Behemoth - Sculpting The Throne Ov Seth - текст песни, таба, видео

Печатать
Просмотров: 348
Уроки эстрадного вокала в Санкт-Петербурге
This is basicly the solo of the song.. I put this on since I saw so much people playing 
wrong on youtube.
I didn't really add perfect timing.. and didnt really place where to do vibratos.. but 
are things even the biggest morron can hear..
[p.h] = pinch harmonic
  .   = palm mute
Mail any corrections to aap_noot_apenoot@hotmail.com

------------------------------------------------------------------------|
------------------------------------------------------------------------|
---------------------13h14p13\12-13-------------------13-15-16-17-16-15-|
------------13-14-15----------------11-13-14-12-14-15-------------------|
---12-13-14-------------------------------------------------------------|
0-----------------------------------------------------------------------|
    . .  .  .  .  .                  .  .  .  .  .  .

----------------------------------------------------------------------|
-------------------------------/18-17-15-17---------------------------|
16--------------------------------------------------------------------|
----------------------------------------------------------------------|
----------------------------------------------------------------------|
----------------------------------------------------------------------|


19-19-19-17-17-17-16-16-16---------------------------------------------|
---------------------------18-18-18-17-17-17-15-15-15-13---13\11-12----|
-----------------------------------------------------------------------|
-----------------------------------------------------------------------|
-----------------------------------------------------------------------|
-----------------------------------------------------------------------|

-------------------------------------------------22 bend it ----------|
/18----18----18----18----17----15----17-------------------------------|
----------------------------------------------------------------------|
----------------------------------------------------------------------|
----------------------------------------------------------------------|
----------------------------------------------------------------------|

12-12-<<-little vibrato->>-------22-----------------------------------|
----------------------------------------------------------------------|
----------------------------------------------------------------------|
----------------------------------------------------------------------|
----------------------------------------------------------------------|
----------------------------------------------------------------------|

/20----19----17----16------------------16-----------------------------|
-----------------------------------18-----18--17--15--17--------------|
----------------------------------------------------------16----------|
----------------------------------------------------------------------|
----------------------------------------------------------------------|
----------------------------------------------------------------------|

-------------------------------------------------[p.h]----------------|
9-10-12-10-9-9-------9-9-10-9-8-9-8-5-----5---5----5------------------|
---------------11-10--------------------------------------------------|
----------------------------------------------------------------------|
----------------------------------------------------------------------|
----------------------------------------------------------------------|

----------------------------------------------^-----------------------|
/12-16-13-12-13-17-16-13/-20-18-16-21-18-16-15------------------------|
----------------------------------------------------------------------|
----------------------------------------------------------------------|
----------------------------------------------------------------------|
----------------------------------------------------------------------|
Добавлено: 16.06.2012
Другие материалы по этой песне:

Страница создана 25.02.2012
http://primanota.ru/behemoth/sculpting-the-throne-ov-seth-chords.htm
Привет, Гость.
Предлагаем пройти революционный курс по гитаре.
Подарок от PrimaNota.Ru, забирай!