PrimaNota.ru - самый крупный в мире бесплатный архив песенных текстов, аккордов, табулатур и нот


Behemoth - Prometherion - текст песни, таба, бас-таба, видео

Регистрация Запомнить меня
Войти через:  Facebook Google Twitter Vk Yandex Mail.ru

Behemoth - Prometherion - текст песни, таба, бас-таба, видео

Печатать
Просмотров: 259
----------------------------------------------------------------------------
                             Prometherion - Behemoth
----------------------------------------------------------------------------Email: Guitarplayer1636@yahoo.com

Tuning: C# F# B E G# C#

Guitar 1  INTRO          RIFT A
C#|--------------------|---------------------------------------------------|
G#|--------------------|---------------------------------------------------|
E |--------------------|---------------------------------------------------|
B |-12-12-11-7-8-5-7-8-|---------------------------------------------------|
F#|-10-10--9-5-6-3-5-6-|-3-7-8--(8)---5-7-8-4------------------------------|
C#|--------------------|-3-5-6--(6)---3-5-6-2-2222222222222222222222222222-|
pm   .  .  . . . . . .   . .            . .   ............................
Guitar 2
C#|--------------------|---------------------------------------------------|
G#|--------------------|---------------------------------------------------|
E |--------------------|---------------------------------------------------|
B |-12-12-11-7-8-5-6-8-|---------------------------------------------------|
F#|-10-10--9-5-6-3-5-6-|---------------------------------------------------|
C#|--------------------|-3355666666666335566222222222222222222222222222222-|
pm   . .   . . . . . .

Guitar 1  (riff a)
C#|----------------------------19p15--15-19p15-----------------------------|
G#|---------------------------------17--------17---------------------------|
E |---------------------------------------------16-------------------------|
B |------------------------------------------------------------------------|
F#|-5-7-8--(8)---5-7-8-7----------------------------5-7-8--(8)---5-7-8-----|
C#|-3-5-6--(6)---3-5-6-5----------------------------3-5-6--(6)---3-5-6-----|
pm  . .            . .                              . .            . .
Guitar 2
C#|------------------------------------------------------------------------|
G#|------------------------------------------------------------------------|
E |------------------------------------------------------------------------|
B |------------------------------------------------------------------------|
F#|------------------------------------------------------------------------|
C#|-3355666666666335566222222222222222222222222222222335566666666335566666-|
   
Guitar 1  (riff a)
C#|---------------------------------------------------------[4]------------|
G#|------------------------------------------------------------[4]---------|
E |---------------------------------------------------------------[4]------|
B |----------------------------------------------5--4--8--5----------[4]---|
F#|-4------------------------5-7-8--(8)---5-7-8--3--2--6--3----------------|
C#|-2-2222222222222222222222-3-5-6--(6)---3-5-6--3--2--6--3----------------|
pm                           . .            . .  .  .  .  .
Guitar 2
C#|---------------------------------------------------------[4]------------|
G#|------------------------------------------------------------[4]---------|
E |---------------------------------------------------------------[4]------|
B |----------------------------------------------5--4--6--5----------[4]---|
F#|----------------------------------------------3--2--4--3----------------|
C#|-22222222222222222222222223355666666666335566-3--2--4--3----------------|
pm                                               .  .  .  .

 (Repeat Rift A)

Guitar 1 and 2   RIFF B
C#|------------[4]---------------------[4]---------------------[4]---------|
G#|---------------[4]---------------------[4]---------------------[4]------|
E |------------------[4]---------------------[4]---------------------[4]---|
B |-5--4--6--5----------[4]-5--4--6--5----------[4]-5--4--6--5----------[4]|
F#|-3--2--4--3--------------3--2--4--3--------------3--2--4--3-------------|
C#|-3--2--4--3--------------3--2--4--3--------------3--2--4--3-------------|
pm  .  .  .  .              .  .  .  .              .  .  .  . 

Guitar 1  RIFF C
C#|------------------------------------------------------------------------|
G#|------------------------------------------------------------------------|
E |------------------------------------------------------------------------|
B |------------------------------------------------------------------------|
F#|-6p3---5p2---6p3---5p2---6p3--6p3--6p3---5p2---6p3---5p2---6p3-6/-------|
C#|-----0-----0-----0-----0---------------0-----0-----0-----0--------------|
pm      .     .     .     .               .     .     .     .
Guitar 2
C#|------------------------------------------------------------------------|
G#|------------------------------------------------------------------------|
E |------------------------------------------------------------------------|
B |------------------------------------------------------------------------|
F#|-2----------------------------------------------------------------------|
C#|-0----------------------------------------------------------------------|
pm  .

Guitar 1 and 2  (riff c)
C#|------------------------------------------------------------------------|
G#|------------------------------------------------------------------------|
E |------------------------------------------------------------------------|
B |------------------------------------------------------------------------|
F#|-10p7---9p6---10p7---9p6---10p7-10p7-10p7---9p6---10p7---9p6---10p7-10p7|
C#|------0-----0------0-----0----------------0-----0------0-----0----------|
pm       .     .      .     .                .     .      .     .
Guitar 1 plays riff C while...
Guitar 2
C#|------------------------------------------------------------------------|
G#|------------------------------------------------------------------------|
E |------------------------------------------------------------------------|
B |------------------------------------------------------------------------|
F#|-10p7---9p6---10p7---9p6---10p7-10p7-10p7---9p6---10p7---9p6---10p7-10p7|
C#|------0-----0------0-----0----------------0-----0------0-----0----------|
pm       .     .      .     .                .     .      .     .
and....
C#|------------------------------------------------------------------------|
G#|------------------------------------------------------------------------|
E |------------------------------------------------------------------------|
B |------------------------------------------------------------------------|
F#|-6p3---5p2---6p3---5p2---6p3--6p3--6p3---5p2---6p3---5p2---6p3-6/-------|
C#|-----0-----0-----0-----0---------------0-----0-----0-----0--------------|
pm      .     .     .     .               .     .     .     .

GUITAR SOLO  RIFF D
guitar 3
C#|-----------------12---11h12p11~-----------------------------------------|
G#|-12~~~----12~~------------------12--13--10--13--12b--12~~---12~~--------|
E |------------------------------------------------------------------------|
B |------------------------------------------------------------------------|
F#|------------------------------------------------------------------------|
C#|------------------------------------------------------------------------|
Guitar 1
C#|------------------7----6h7p6--------------------------------------------|
G#|--7~~------7~~-------------------7---8---5---8---7b---7~~----7~~--------|
E |------------------------------------------------------------------------|
B |------------------------------------------------------------------------|
F#|------------------------------------------------------------------------|
C#|------------------------------------------------------------------------|
Guitar 2
C#|------------------------------------------------------------------------|
G#|------------------------------------------------------------------------|
E |------------------------------------------------------------------------|
B |-9----------------9--------8-----------------------9--------------------|
F#|-x----------------7--------6-----9--10---7---10----x--------------------|
C#|-7----------------7--------6-----7---8---5----8----7--------------------|
pm                                  .   .   .    .

guitar 3  (riff D)
C#|12~-11h12p11-------------------------------------12--121313121315151215-|
G#|------------12-13-10-13-10~--12-12-13~-1213151315--15-------------------|
E |------------------------------------------------------------------------|
B |------------------------------------------------------------------------|
F#|------------------------------------------------------------------------|
C#|------------------------------------------------------------------------|
guitar 1
C#|7~--6h7p6------------------------------------------7----7-8-7-8-10-8-10-|
G#|------------7--8--7---8--5~--7--7--8~--7-8-10-8-10---10-----------------|
E |------------------------------------------------------------------------|
B |------------------------------------------------------------------------|
F#|------------------------------------------------------------------------|
C#|------------------------------------------------------------------------|
Guitar 2
C#|------------------------------------------------------------------------|
G#|------------------------------------------------------------------------|
E |------------------------------------------------------------------------|
B |9-------8----------------7-----------------9-----8----------------------|
F#|7-------6---9-10--7--10--x-----------------7-----6----9--10---7--10-----|
C#|7-------6---7--8--5---8--5-----------------7-----6----7---8---5---8-----|
pm             .  .  .   .                               .   .   .   .

Guitar 2 repeats riff D For rest of solo

Guitar 3   (riff D)
C#|-15b~~---15--13-13-12-13-15-15-13-12-15-15-13-12------------------------|
G#|-------------------------------------------------15p14-15p14------------|
E |--------------------------------------------------------------14~~----\-|
B |------------------------------------------------------------------------|
F#|------------------------------------------------------------------------|
C#|------------------------------------------------------------------------|
guitar 1
C#|-10~~--------7~~---------------------7~~----------------------8~------\-|
G#|------------------------------------------------------------------------|
E |------------------------------------------------------------------------|
B |------------------------------------------------------------------------|
F#|------------------------------------------------------------------------|
C#|------------------------------------------------------------------------|

Guitar 3   (riff D)
C#|--------------------------------16/18--20--21~---18--20--21--20~--------|
G#|-11--13--14~---11--13--14--10~------------------------------------------|
E |------------------------------------------------------------------------|
B |------------------------------------------------------------------------|
F#|------------------------------------------------------------------------|
C#|------------------------------------------------------------------------|
Guitar 1
C#|------------------------------------------------------------------------|
G#|----------------------------------11--13--14~----11--13--14--13~~-------|
E |------------------------------------------------------------------------|
B |--8--10--11~----8--10--11--7~~------------------------------------------|
F#|------------------------------------------------------------------------|
C#|------------------------------------------------------------------------|

guitar 3 and 1   (riff  D)
C#|/8-7h8p7-7------------------------------------------------5-6--------7-8|
G#|--------9-975h7p5-5---------------------------------5-7-8-----7h8h10----|
E |-----------------7-6h7p6-6-----------------8-7-5-7-8--------------------|
B |------------------------8-7~~--------7-9-10-----------------------------|
F#|-------------------------------7-9-10-----------------------------------|
C#|------------------------------------------------------------------------|


Guitar 3    RIFF F
C#|------------------------------------------------------------------------|
G#|-7*~~-------------------------------------------------------------------|
E |------------------------------------------------------------------------|
B |------------------------------------------------------------------------|
F#|------------------------------------------------------------------------|
C#|------------------------------------------------------------------------|
guitar 1
C#|------------------------------------------------------------------------|
G#|------------------------------------------------------------------------|
E |------------------------------------------------------------------------|
B |------88887777----------------------------------------------------------|
F#|---------------8888999999996666888888889999666688889999666688889999-----|
C#|-6666-------------------------------------------------------------------|
Guitar 2
C#|------------------------------------------------------------------------|
G#|------------------------------------------------------------------------|
E |------------------------------------------------------------------------|
B |------55554444----------------------------------------------------------|
F#|---------------5555666666663333555555556666333355556666333355556666-----|
C#|-3333-------------------------------------------------------------------|

Guitar 1  RIFF G
C#|------------------------------------------------------------------------|
G#|------------------------------------------------------------------------|
E |-----7---6-------7---6---7--10\-------7---6-------7---6---7--10\--------|
B |-----5---4-------5---4---5---8\-------5---4-------5---4---5---8\--------|
F#|------------------------------------------------------------------------|
C#|-3-0---------3-0------------------3-0---------3-0-----------------------|
pm  . .         . .                  . .         . .
Guitar 2 
C#|------------------------------------------------------------------------|
G#|------------------------------------------------------------------------|
E |------------------------------------------------------------------------|
B |------------------------------------------------------------------------|
F#|------------------------------------------------------------------------|
C#|-3333666655553333555533335555666633336666555533335555333355556666-------|

Guitar 1  (riff G)
C#|------------------------------------------------------------------------|
G#|------------------------------------------------------------------------|
E |-----7---6-------7---6---4---6-------7---6-------7---6---4---6----------|
B |-----5---4-------5---4---2---4-------5---4-------5---4---2---4----------|
F#|-x-------------------------------x--------------------------------------|
C#|-0-----------3-0-----------------0-----------3-0------------------------|

C#|------------------------------------------------------------------------|
G#|------------------------------------------------------------------------|
E |------------------------------------------------------------------------|
B |------------------------------------------------------------------------|
F#|------------------------------------------------------------------------|
C#|-222266665555333355552222555566663333666655553333555533335--5-----------|

Repeat riff G Again

Guitar 3  RIFF H   Guitar 2 plays riff G again
C#|------------------------------------------------------------------------|
G#|-11~--13--11--13--14b--(14---13--10~-----------14--13--14--16--14--13\--|
E |-12~--14--12--14--15b--(15)--14--11~-----------15--14--15--17--15--14\--|
B |------------------------------------------------------------------------|
F#|------------------------------------------------------------------------|
C#|------------------------------------------------------------------------|
Guitar 1
C#|------------------------------------------------------------------------|
G#|------------------------------------------------------------------------|
E |------------------------------------------------------------------------|
B |-5------------7----7/8-----------4-------------8---7---5---7---5---7----|
F#|-x------------x----x-------------x-------------x---x---x---x---x---x----|
C#|-3------------5----5/6-----------2-------------6---5---3---5---3---5----|

Guitar 1  RIFF I
C#|------------------------------------------------------------------------|
G#|------------------------------------------------------------------------|
E |------------------------------------------------------------------------|
B |-----88887777-----------------------------------------------------------|
F#|-------------8888999999996666888888889999666688889999666688889999-------|
C#|-6----------------------------------------------------------------------|
pm  .
Guitar 2
C#|------------------------------------------------------------------------|
G#|------------------------------------------------------------------------|
E |------------------------------------------------------------------------|
B |-----55554444-----------------------------------------------------------|
F#|-------------5555666666663333555555556666333355556666333355556666-------|
C#|-3333-------------------------------------------------------------------|

Guitar 1   (riff I)
C#|------------------------------------------------------------------------|
G#|------------------------------------------------------------------------|
E |------------------------------------------------------------------------|
B |-----88887777-----------------------------------------------------------|
F#|-------------8888999999996666888888889999666688889999666633334444-------|
C#|-6----------------------------------------------------------------------|
pm  .
Guitar 2
C#|------------------------------------------------------------------------|
G#|------------------------------------------------------------------------|
E |------------------------------------------------------------------------|
B |-----55554444-----------------------------------------------------------|
F#|-------------55556666666633335555555566663333555566663333---------------|
C#|-3333----------------------------------------------------55556666-------|

Repeat riff I
Repeat riff A twice
Repeat riff B

Guitar 1 Outro  Riff J
C#|------------------------------------------------------------------------|
G#|------------------------------------------------------------------------|
E |------------------------------------------------------------------------|
B |---8---7------8---7---8---11\-------8---7------8---7---8---11\----------|
F#|------------------------------------------------------------------------|
C#|------------------------------------------------------------------------|
Guitar 2
C#|------------------------------------------------------------------------|
G#|------------------------------------------------------------------------|
E |---7---6-------7---6---7--10\-------7---6-------7---6---7--10\----------|
B |---5---4-------5---4---5---8\-------5---4-------5---4---5---8\----------|
F#|------------------------------------------------------------------------|
C#|-0---------3-0------------------3-0---------3-0-------------------------|
pm  .         . .                  . .         . .
Guitar 3
C#|------------------------------------------------------------------------|
G#|------------------------------------------------------------------------|
E |------------------------------------7---6-------7---6---7--10\----------|
B |------------------------------------5---4-------5---4---5---8\----------|
F#|-5------------------------------5---------------------------------------|
C#|-3------------------------------3-----------3-0-------------------------|
pm                                 .           . .

Guitar 1   (riff J)
C#|------------------------------------------------------------------------|
G#|------------------------------------------------------------------------|
E |------------------------------------------------------------------------|
B |-----8---7------8---7---5---7--------8---7-------8---7---5---7----------|
F#|------------------------------------------------------------------------|
C#|------------------------------------------------------------------------|
Guitar 2
C#|------------------------------------------------------------------------|
G#|------------------------------------------------------------------------|
E |-----7---6-------7---6---4---6-------7---6-------7---6---4---6----------|
B |-----5---4-------5---4---2---4-------5---4-------5---4---2---4----------|
F#|------------------------------------------------------------------------|
C#|-0-----------3-0-----------------3-0---------3-0------------------------|
pm  .           . .                 . .         . .
Guitar 3
C#|------------------------------------------------------------------------|
G#|------------------------------------------------------------------------|
E |-6----------------------------------------------------------------------|
B |-4----------------------------------------------------------------------|
F#|---------------------------------x\\\\\\\\\\\\\\\\\\\\\\\\\\\\----------|
C#|------------------------------------------------------------------------|

Guitar 1   (riff J)
C#|------------------------------------------------------------------------|
G#|------------------------------------------------------------------------|
E |------------------------------------------------------------------------|
B |---8---7------8---7---8---11\-------8---7------8---7---8---11\----------|
F#|------------------------------------------------------------------------|
C#|------------------------------------------------------------------------|
Guitar 2
C#|------------------------------------------------------------------------|
G#|------------------------------------------------------------------------|
E |-----7---6-------7---6---7--10\-------7---6-------7---6---7--10\--------|
B |-----5---4-------5---4---5---8\-------5---4-------5---4---5---8\--------|
F#|------------------------------------------------------------------------|
C#|-3-0---------3-0------------------3-0---------3-0-----------------------|
pm  . .         . .                  . .         . .

Guitar 1  (riff J)
C#|------------------------------------------------------------------------|
G#|------------------------------------------------------------------------|
E |------------------------------------------------------------------------|
B |-----8---7------8---7---5---7--------8---7-------8---7---5---7----------|
F#|------------------------------------------------------------------------|
C#|------------------------------------------------------------------------|
Guitar 2
C#|------------------------------------------------------------------------|
G#|------------------------------------------------------------------------|
E |-------7---6-------7---6---4---6-------7---6-------7---6---4---6--------|
B |-------5---4-------5---4---2---4-------5---4-------5---4---2---4--------|
F#|------------------------------------------------------------------------|
C#|-3-0-----------3-0-----------------3-0---------3-0----------------------|
pm  . .           . .                 . .         . .

Guitar 1  (riff J)
C#|------------------------------------------------------------------------|
G#|------------------------------------------------------------------------|
E |------------------------------------------------------------------------|
B |---8---7------8---7---8---11\-------8---7------8---7---8---11\----------|
F#|------------------------------------------------------------------------|
C#|------------------------------------------------------------------------|
Guitar 2
C#|------------------------------------------------------------------------|
G#|------------------------------------------------------------------------|
E |-----7---6-------7---6---7--10\-------7---6-------7---6---7--10\--------|
B |-----5---4-------5---4---5---8\-------5---4-------5---4---5---8\--------|
F#|------------------------------------------------------------------------|
C#|-3-0---------3-0------------------3-0---------3-0-----------------------|
pm  . .         . .                  . .         . .

Guitar 1   (riff J)
C#|------------------------------------------------------------------------|
G#|------------------------------------------------------------------------|
E |------------------------------------------------------------------------|
B |-----8---7------8---7---5---7--------8---7-------8---7---5--------------|
F#|------------------------------------------------------------------------|
C#|------------------------------------------------------------------------|
Guitar 2
C#|------------------------------------------------------------------------|
G#|------------------------------------------------------------------------|
E |-------7---6-------7---6---4---6-------7---6-------7---6---4------------|
B |-------5---4-------5---4---2---4-------5---4-------5---4---2------------|
F#|------------------------------------------------------------------------|
C#|-3-0-----------3-0-----------------3-0---------3-0----------------------|
pm  . .           . .                 . .         . .



| /  slide up
| \  slide down
| h  hammer-on
| p  pull-off
| ~  vibrato
| +  harmonic
| [ ] Natural Harmonic
| *  Pitch Harmonic
| x  Mute note
| x\ Pick Scrape
============================================================================
Добавлено: 17.05.2012
Другие материалы по этой песне:

Страница создана 29.02.2012
http://primanota.ru/behemoth/prometherion-chords.htm
Привет, Гость.
Предлагаем пройти революционный курс по гитаре.
Подарок от PrimaNota.Ru, забирай!