PrimaNota.ru - самый крупный в мире бесплатный архив песенных текстов, аккордов, табулатур и нот


Behemoth - Slaves Shall Serve - текст песни, таба, видео

Регистрация Запомнить меня
Войти через:  Facebook Google Twitter Vk Yandex Mail.ru

Behemoth - Slaves Shall Serve - текст песни, таба, видео

Печатать
Просмотров: 468
-------------------------------------------------------------------------------
                             Slaves Shall Serve - Behemoth
-------------------------------------------------------------------------------
Tabbed by:Greg M

Tuning:Drop Bb

  Chances are I got the string names wrong, just like every other Behemoth song I tab. 
unlike other Behemoth tabbers, I at least tried. Behemoth is the heaviest band in existence.

                                       Intro
                                                 Harmonic ending
Cb|--------------------------------------------------------------------------|
F#|--------------------------------------O-----------------------------------|
D|---------------------------------------------------------------------------|
A|---------------------------------------------------------------------------|
E|----5---6-5h6p5-8-6-5---5---6-3h5------O----5--6-3h5-----------------------|
Bb|-00--00--------------00--00------7-8-4---00-00------0-3-------------------|
    ..  ..              ..  ..              .. ..      . +
Verse riff
Cb|--------------------------------------------------------------------------|
F#|--------------------------------------------------------------------------|
D|------------14--13-9---------10-9------------------------------------------|
A|------------x---x--x---------x--x------------------------------------------|
E|--5-8--7-5--12--11-7-5-8-7-5-8--7------------------------------------------|
Bb|--0--0-0-0-----------0-0-0------------------------------------------------|

guitar solo
Cb|--------------------------------------------------------------------------|
F#|--------------------------------------------------------------------------|
D|-------10-11-10-11-10--------------------10-11-10-11-13~-14~-------10-11-10|
A|--11-12---------------12-11-8-11-12-11-12--------------------11-12---------|
E|---------------------------------------------------------------------------|
Bb|--------------------------------------------------------------------------|

Cb|-----------------------------------------------------------13--16~--------|
F#|----------------------------------12-----15p13p12-16p15p12---15-----------|
D|-11-14-13-11-10~-13p11p10-14p13p11---14p13---------------------------------|
A|-------------------------------------------------------------------16-17---|
E|---------------------------------------------------------------------------|
Bb|--------------------------------------------------------------------------|

Play the below twice, then proceed the the second half.
Cb|------------------------------|--------------------------------------------|
F#|------------------------------|--------------------------------------------|
D|--15-16-15-16-15---------------|-------13-14-13-14-13-----------------------|
A|-----------------17-16-17-16-13|-15-16----------------16-15-16-15-12-15-16--|
E|-------------------------------|--------------------------------------------|
Bb|------------------------------|--------------------------------------------|

Cb|--------------------------------------------------------------------------|
F#|--------------------------------------------------------------------------|
D|-13-14-13-14-13------------------------------------------------------------|
A|----------------16-15-16~--------------------------------------------------|
E|---------------------------------------------------------------------------|
Bb|--------------------------------------------------------------------------|

   Riff 2: Triplets x8; then play these chords however many times
Cb|--------------------------------------------------------------------------|
F#|--------------------------------------------------------------------------|
D|---------------------------------------------------------------------------|
A|--000--------0-4-3-1-0-4-3-1-----------------------------------------------|
E|--000--------0-4-3-1-0-4-3-1-----------------------------------------------|
Bb|-000--------0-4-3-1-0-4-3-1-----------------------------------------------|
    ...        . . . . . . . .
Guitar 2
Cb|-------------------------------------------------------------------------------------|
F#|-------------------------------------------------------------------------------------|
D|--8---7--8--7-------------------------------------------------------------------------|
A|--x---x--x--x--5-7-8-7-5--------------------------------------------------------------|
E|--6---5--6--5--x-x-x-x-x--------------------------------------------------------------|
Bb|--------------5-7-8-7-5--------------------------------------------------------------|
 There is some tremolo riff that starts on 4 that I don't understand.


 Riff 3:   Tremolo the singles, and figure out how many times to play the palm muted chords.
Cb|--------------------------------------------------------------------------|
F#|--------------------------------------------------------------------------|
D|---------------------------------------------------------------------------|
A|--000-3-7-6-3-6-3-6-7-111-5-8-7-5-8-7-5-7----------------------------------|
E|--000-----------------111--------------------------------------------------|
Bb|-000-----------------111--------------------------------------------------|
    ...                 ...

Riff 4: Tremolo all single notes
Cb|-------------------------------------------------------------------------------------|
F#|-----------------O-------------------------------------------------------------------|
D|--------------------------------------------------------------------------------------|
A|--------------1-----------------------------------------------------------------------|
E|-------6--5---1---O--000-000-0-1-5----------------------------------------------------|
Bb|-0----8--7---1-0----000-000-0-1-5----------------------------------------------------|
         *  *   .      ... ... . . .

Chorus riff
Cb|--------------------------------------------------------------------------|
F#|--------------------------------------------------------------------------|
D|-------------x4-after-4-play-----------------------------------------------|
A|---7-8-7-3/8----------------7-8--1-----------------------------------------|
E|---5-6-5-1/6----------------5-6--1-----------------------------------------|
Bb|---0-0-0--------------------0-0-1-----------------------------------------|
      . . .                    . .

It might be sloppily tabbed, but it's mostly correct.
BEHEMOTH !


| *  split chord between two guitars
| /  slide up
| \  slide down
| h  hammer-on
| p  pull-off
| ~  vibrato
| +  harmonic
| x  Mute note
===============================================================================
Добавлено: 30.05.2012
Другие материалы по этой песне:

Страница создана 15.03.2012
http://primanota.ru/behemoth/slaves-shall-serve-chords.htm
Привет, Гость.
Предлагаем пройти революционный курс по гитаре.
Подарок от PrimaNota.Ru, забирай!