PrimaNota.ru - самый крупный в мире бесплатный архив песенных текстов, аккордов, табулатур и нот


Behemoth - Reign Ov Shemsu-hor - текст песни, таба, видео

Регистрация Запомнить меня
Войти через:  Facebook Google Twitter Vk Yandex Mail.ru

Behemoth - Reign Ov Shemsu-hor - текст песни, таба, видео

Печатать
Просмотров: 183
Palm Mute - .

C# F# B E G# C#


|------------------|
|------------------|
|------------------|   x8
|--11------11-10---|
|--11------11-10---|
|--9-------9--8----|


|----------------------------------------------------------|
|----------------------------------------------------------|
|----------------------------------------------------------|
|-------7/6--5-4--3----2-----2--------------------2-----2--|   x4
|--0-0--x/x--5-4--3----2-2-2-2--2-2---------------2-2-2-2--|
|--0-0--5/4--3-2--1----0-0-0-0--0-0--00000-00000--0-0-0-0--|
             . .

|-------------------------------|
|-------------------------------|
|-------------------------------|
|-------7/6--5-4--3--2---11-10--|   x1
|--0-0--x/x--5-4--3--2---11-10--|
|--0-0--5/4--3-2--1--0---9--8---|
             . .

|------------------|
|------------------|
|------------------|
|--11------11-10---|   x8
|--11------11-10---|
|--9-------9--8----|


(Clean)

|--------------|
|--------------|
|--------3--2--|
|-----2--------|   x5
|--1-----------|
|--------------|


(Distorted)

|-------------------|
|-------------------|
|-------------------|
|----7-6-5-7-6-4-3--|
|--0-7-6-5-7-6-4-3--|
|--0-5-4-3-5-4-2-1--|
   .           . .

|-----------------------------------|
|-----------------------------------|
|-----------------------------------|
|-----------------------------------|
|-----------------------------------|
|--000-000-000-003-2-1-5-4-3-3-2-1--|


|-----------------------------------|
|-----------------------------------|
|-----------------------------------|
|-----------------------------------|
|-----------------------------------|
|--000-000-000-006-5-4-8-7-6-6-5-4--|


|-----------------------------------|
|-----------------------------------|
|-----------------------------------|
|-----------------------------------|
|-----------------------------------|
|--000-000-000-003-2-1-5-4-3-3-2-1--|


|---------------------------------|
|---------------------------------|
|---------------------------------|
|----4---3-------9/8-6/5-6/8-7/6--|
|--0-4-0-3-------7/6-4/3-4/6-5/4--|
|--0-2-0-1--000-------------------|


|-----------------------------------|
|-----------------------------------|
|-----------------------------------|
|-----------------------------------|
|-----------------------------------|
|--000-000-000-003-2-1-5-4-3-3-2-1--|


|-----------------------------------|
|-----------------------------------|
|-----------------------------------|
|-----------------------------------|
|-----------------------------------|
|--000-000-000-006-5-4-8-7-6-6-5-4--|


|-----------------------------------|
|-----------------------------------|
|-----------------------------------|
|-----------------------------------|
|-----------------------------------|
|--000-000-000-003-2-1-5-4-3-3-2-1--|


|---------------------------------|
|---------------------------------|
|---------------------------------|
|----4---3-------9/8-6/5-6/8-7/6--|
|--0-4-0-3-------7/6-4/3-4/6-5/4--|
|--0-2-0-1--000-------------------|



|----------------------------------------------------|
|----------------------------------------------------|
|----------------------------------------------------|
|------------------------------14-14-13-13-12-12-11--|   x2
|-------------------------------x--x--x--x--x--x-x---|
|--0-0-0-0-0-0-0-0-0-0-0-0-0-0-12-12/11-11/10-10/9---|


|--------------|
|--------------|
|--------------|
|--7---9--7-6--|
|--5---7--5-4--|
|--------------|


|----------------------------------------------------|
|----------------------------------------------------|
|----------------------------------------------------|
|------------------------------14-14-13-13-12-12-11--|   x3
|-------------------------------x--x--x--x--x--x-x---|
|--0-0-0-0-0-0-0-0-0-0-0-0-0-0-12-12/11-11/10-10/9---|


|--------------|
|--------------|
|--------------|
|--7---9--7-6--|
|--5---7--5-4--|
|--------------|


|----------------------------------------------------|
|----------------------------------------------------|
|----------------------------------------------------|
|------------------------------14-14-13-13-12-12-11--|   x3
|-------------------------------x--x--x--x--x--x-x---|
|--0-0-0-0-0-0-0-0-0-0-0-0-0-0-12-12/11-11/10-10/9---|


|--------------|
|--------------|
|--------------|
|--7---9--7-6--|
|--5---7--5-4--|
|--------------|


|----------------------------------------------------|
|----------------------------------------------------|
|----------------------------------------------------|
|------------------------------14-14-13-13-12-12-11--|   x3
|-------------------------------x--x--x--x--x--x-x---|
|--0-0-0-0-0-0-0-0-0-0-0-0-0-0-12-12/11-11/10-10/9---|


|--------------|
|--------------|
|--------------|
|--7---9--7-6--|
|--5---7--5-4--|
|--------------|



Guitar 1:solo


Guitar 2:
|---------------------------------------------------------------------------------------|
|---------------------------------------------------------------------------------------|
|---------------------------------------------------------------------------------------|
|---------------------------------------------------------------------------------------|
|---------------------------------------------------------------------------------------|
|--0-0-0-0-0-0-0-0-0-0-0-0-0-0-0-0-0-0-0-0-0-0-0-0-0-0-0-0-0-0-0-0-0-0-0-0-0-0-0-0-0-0--|


|--------------------|
|--------------------|
|--------------------|
|-------3/4-4/5-5/7--|
|----2--x-x-x-x-x-x--|
|--0-0--1/2-2/3-3/5--|



Both
|----------------------------------------------------|
|----------------------------------------------------|
|----------------------------------------------------|
|------------------------------14-14-13-13-12-12-11--|   x2
|-------------------------------x--x--x--x--x--x-x---|
|--0-0-0-0-0-0-0-0-0-0-0-0-0-0-12-12/11-11/10-10/9---|


|--------------|
|--------------|
|--------------|
|--7---9--7-6--|
|--5---7--5-4--|
|--------------|


|----------------------------------------------------|
|----------------------------------------------------|
|----------------------------------------------------|
|------------------------------14-14-13-13-12-12-11--|   x3
|-------------------------------x--x--x--x--x--x-x---|
|--0-0-0-0-0-0-0-0-0-0-0-0-0-0-12-12/11-11/10-10/9---|


|--------------|
|--------------|
|--------------|
|--7---9--7-6--|
|--5---7--5-4--|
|--------------|


|----------------------------------------------------|
|----------------------------------------------------|
|----------------------------------------------------|
|------------------------------14-14-13-13-12-12-11--|   x3
|-------------------------------x--x--x--x--x--x-x---|
|--0-0-0-0-0-0-0-0-0-0-0-0-0-0-12-12/11-11/10-10/9---|


|--------------|
|--------------|
|--------------|
|--7---9--7-6--|
|--5---7--5-4--|
|--------------|


|----------------------------------------------------|
|----------------------------------------------------|
|----------------------------------------------------|
|------------------------------14-14-13-13-12-12-11--|   x3
|-------------------------------x--x--x--x--x--x-x---|
|--0-0-0-0-0-0-0-0-0-0-0-0-0-0-12-12/11-11/10-10/9---|


|--------------|
|--------------|
|--------------|
|--7---9--7-6--|
|--5---7--5-4--|
|--------------|


Guitar 1:solo

Guitar 2:
|---------------------------------------------------------------------------------------|
|---------------------------------------------------------------------------------------|
|---------------------------------------------------------------------------------------|
|---------------------------------------------------------------------------------------|
|---------------------------------------------------------------------------------------|
|--0-0-0-0-0-0-0-0-0-0-0-0-0-0-0-0-0-0-0-0-0-0-0-0-0-0-0-0-0-0-0-0-0-0-0-0-0-0-0-0-0-0--|


|--------------------|
|--------------------|
|--------------------|
|-------3/4-4/5-5/7--|
|----2--x-x-x-x-x-x--|
|--0-0--1/2-2/3-3/5--|


Both
|-----------------------------------|
|-----------------------------------|
|-----------------------------------|
|-----------------------------------|
|-----------------------------------|
|--000-000-000-003-2-1-5-4-3-3-2-1--|


|-----------------------------------|
|-----------------------------------|
|-----------------------------------|
|-----------------------------------|
|-----------------------------------|
|--000-000-000-006-5-4-8-7-6-6-5-4--|


|-----------------------------------|
|-----------------------------------|
|-----------------------------------|
|-----------------------------------|
|-----------------------------------|
|--000-000-000-003-2-1-5-4-3-3-2-1--|


|---------------------------------|
|---------------------------------|
|---------------------------------|
|----4---3-------9/8-6/5-6/8-7/6--|
|--0-4-0-3-------7/6-4/3-4/6-5/4--|
|--0-2-0-1--000-------------------|


|-----------------------------------|
|-----------------------------------|
|-----------------------------------|
|-----------------------------------|
|-----------------------------------|
|--000-000-000-003-2-1-5-4-3-3-2-1--|


|-----------------------------------|
|-----------------------------------|
|-----------------------------------|
|-----------------------------------|
|-----------------------------------|
|--000-000-000-006-5-4-8-7-6-6-5-4--|


|-----------------------------------|
|-----------------------------------|
|-----------------------------------|
|-----------------------------------|
|-----------------------------------|
|--000-000-000-003-2-1-5-4-3-3-2-1--|


|--------------------------------------------|
|--------------------------------------------|
|--------------------------------------------|
|----4---3-------9/8-6/5-6/8-7/6--7-6---6-7--|
|--0-4-0-3-------7/6-4/3-4/6-5/4--5-4---4-5--|
|--0-2-0-1--000-----------------------0------|


Guitar 1
|-------------------------------|
|-------------------------------|
|-------------------------------|
|-------------------------------|   x8
|--11-------11---15-14-12-11----|
|---9--9--9--9---13-12-10--9----|



Guitar 2
|------------------------------------------------------------------------|
|------------------------------------------------------------------------|
|------------------------------------------------------------------------|  x4
|--7--------9---7--6---6-----------7------9---7--6---4----------7--4--6--|
|--5--------7---5--4---4-----------5------7---5--4---2----------5--2--4--|
|------------------------------------------------------------------------|


Guitar 1:solo


Guitar 2:
|-----------|
|-----------|
|-----------|
|--7--4--6--|
|--5--2--4--|
|-----------|


|---------------------------------------------------------------|
|---------------------------------------------------------------|
|---------------------------------------------------------------|
|--2-2-2-2-------2-2-2-2-------2-2-2-2--------------------------|    x3
|--2-2-2-2-------2-2-2-2-------2-2-2-2-----2-2-2-3-2-2-4-3-2-2--|
|--0-0-0-0-------0-0-0-0-------0-0-0-0-----0-0-0-1-0-0-2-1-0-0--|


|---------------------------------------------------------------|
|---------------------------------------------------------------|
|---------------------------------------------------------------|
|--7------9--7--6-6-------------2------8-7-6--------------------|    x2
|--5------7--5--4-4-------8-10--2------6-5-4--8-10-8--6--5-6-2--|
|-------------------------6--8--0-------------6--8-6--4--3-4-0--|
                                                         . . 

|--------------------------------------|
|--------------------------------------|
|--------00011122244444555666----------|
|--------------------------------------|   x2
|--5--7--------------------------------|
|--3--5--------------------------------|


|---------------------|
|---------------------|
|---------------------|
|--2----7-----------7-|
|--2----5-----------5-|
|--0--------0--0--0---|


|---------------------------------------------------------------|
|---------------------------------------------------------------|
|---------------------------------------------------------------|
|--7------9--7--6-6-------------2------8-7-6--------------------|    x2
|--5------7--5--4-4-------8-10--2------6-5-4--8-10-8--6--5-6-2--|
|-------------------------6--8--0-------------6--8-6--4--3-4-0--|
                                                         . . 

|--------------------------------------|
|--------------------------------------|
|--------00011122244444555666----------|
|--------------------------------------|   x2
|--5--7--------------------------------|
|--3--5--------------------------------|


|------------------------------------------------|
|------------------------------------------------|
|------------------------------------------------|
|--2----7-----------7-------------7--------------|
|--2----5-----------5-------------5--------------|
|--0--------0--0--0-------0--0--0------0--0--0---|


Guitar 1: Solo

Guitar 2:
|-----------------------|
|-----------------------|
|-----------------------|
|--7--------7---10-7-6--|   x5
|--5--------5----8-5-4--|
|-----0--0--------------|
Добавлено: 11.06.2012
Другие материалы по этой песне:

Страница создана 01.03.2012
http://primanota.ru/behemoth/reign-ov-shemsu-hor-chords.htm
Привет, Гость.
Предлагаем пройти революционный курс по гитаре.
Подарок от PrimaNota.Ru, забирай!