PrimaNota.ru - самый крупный в мире бесплатный архив песенных текстов, аккордов, табулатур и нот


Behemoth - No Sympathy For Fools - текст песни, таба, видео

Регистрация Запомнить меня
Войти через:  Facebook Google Twitter Vk Yandex Mail.ru

Behemoth - No Sympathy For Fools - текст песни, таба, видео

Печатать
Просмотров: 179
Band:      Behemoth
Song:      No Sympathy For Fools
Album:     Zos Kia Cultus, Here And Beyond
Tabber:    Slashdotcom//

Down Tune 1 Flat Below C

Two Gits

Intro
Both Gits
|------------------------------------------|
|------------------------------------------|
|------------------------------------------|
|------------------------------------------|
|-2------32--------------3-5-3-3-2------32-|1X
|-000000010----000-0-0-0-1-3-1-1-000000010-|
   ......      ... . . . . . . .  ......

Riff 1
Both Gits
|-------------------------------|
|-------------------------------|
|-------------------------------|
|-------------------------------|8X
|-2------2------2-------3-5-3-3-|
|-0-0000-0-0000-0-00000-1-3-1-1-|
    ....   ....   ..... . . . .


Git I                 Both Gits
|---------|          |----------------------------------|
|---------|Riff 1    |----------------------------------|
|10-9-7-9-|is played |----------------------------------|
|-x-x-x-x-|under     |----------------------------------|2X
|-8-7-5-7-|          |-222222111111---------------------|
|---------|          |-------------33333322222233332222-|


Low E String Both Gits
|-0-0-0-0-0-0-0-0-0-0-0-0-0-0-0-0-000-000-000-000-000-000-000-000-|
  . . . . . . . . . . . . . . . . ... ... ... ... ... ... ... ...


Git I                
|---------|         
|---------|
|10-9-7-9-|
|-x-x-x-x-|
|-8-7-5-7-|     Git II
|---------|    |-0-0-0-0-0-0-0-0-0-0-0-0-0-0-0-0-| 
                 . . . . . . . . . . . . . . . . 

Both Gits
|----------------------------------|
|----------------------------------|
|----------------------------------|
|----------------------------------|
|-222222111111---------------------|
|-------------33333322222233332222-|

 Both Gits
|-----------|   |----------------------------------|
|-----------|   |----------------------------------|
|10-9-7-(7)-|   |----------------------------------|
|-x-x-x-(x)-|   |----------------------------------|3X
|-8-7-5-(5)-|   |-222222111111---------------------|
|-----------|   |-------------33333322222233332222-|

Riff 2 I & II
|----------------------------|
|----------------------------|
|----------------------------|
|----------------------------|
|-2------32----------3-5-3-3-|8X
|-0-0000-10--000-0-0-1-3-1-1-|
    ....     ... . . . . . .

Interlude
Git I
|--------------------------------------------------------|
|--------------------------------------------------------|
|--------------------------------------------------------|
|---76-----------------------76--------9h10p9---97---76--|
|--------85---787---85------------85-------------------7-|
|-0----0----0-----0---8757-0----0----0--------0----0-----|
  .    .    .     .        .    .    .        .    .


Play The Interlude again Git I
Interlude Git II
|------------------------------------------------------------------|
|------------------------------------------------------------------|
|---98-----------------------------98---------11h12p11---119---98--|
|--------107---9h10p9---107-------------107----------------------9-|
|--------------------------10979-----------------------------------|
|-0----0-----0--------0----------0----0-----0----------0-----0-----|
  .    .     .        .          .    .     .          .     .

Riff 2 I & II
|----------------------------|
|----------------------------|
|----------------------------|
|----------------------------|
|-2------32----------3-5-3-3-|8X
|-0-0000-10--000-0-0-1-3-1-1-|
    ....     ... . . . . . .

Git I
     |----------------------------|
     |-2------32----------3-5-3-3-|Under the other Chords as well
Low E|-0-0000-10--000-0-0-1-3-1-1-|
         ....     ... . . . . . .
Git II                                              |-8---7-------|Pick
     |-2,,,,,,,,--9,,,,,,,,,,,,,,-|                 |-x-9-x-8-7-6-|Scrape
     |-x,,,,,,,,--x,,,,,,,,,,,,,,-|Do the same      |-6-x-5-x-x-x-|at the
Low E|-0,,,,,,,,--7,,,,,,,,,,,,,,-|for these chords |---7---6-5-4-|End


Interlude
Git I
|--------------------------------------------------------|
|--------------------------------------------------------|
|--------------------------------------------------------|
|---76-----------------------76--------9h10p9---97---76--|
|--------85---787---85------------85-------------------7-|
|-0----0----0-----0---8757-0----0----0--------0----0-----|
  .    .    .     .        .    .    .        .    .

Git II underneath
|-------------------------------------------------------------|
|------------------------------------------------Im not sure--|
|--------------------------4-----------------5----about the---|
|-2--------------3---------x-----------------x----harmonic on-|
|-x--------------x---------2-----------------3-----the End----|
|-0--------------1--------------------------------------------|


Interlude
Git I
|--------------------------------------------------------|
|--------------------------------------------------------|
|--------------------------------------------------------|
|---76-----------------------76--------9h10p9---97---76--|
|--------85---787---85------------85-------------------7-|
|-0----0----0-----0---8757-0----0----0--------0----0-----|
  .    .    .     .       >.    .    .        .    .
                          >
                          >
Git II Underneath      This Chord starts here
|------------------------->-------------------------------|
|------------------------->-----------------------harmonic|
|------------------------->>>>>>>>4----------5------------|
|---------------------------------x----------x------------|
|---------------------------------2----------3------------|
|-000-000-000-000-111-111-111-111-------------------------|
  ... ... ... ... ... ... ... ...
Allright I'll leave it here for the moment the other half I'll tab out
soon
Добавлено: 19.04.2012
Другие материалы по этой песне:

Страница создана 27.02.2012
http://primanota.ru/behemoth/no-sympathy-for-fools-chords.htm
Привет, Гость.
Предлагаем пройти революционный курс по гитаре.
Подарок от PrimaNota.Ru, забирай!